  0
SECTION
  2
HEADER
  9
$ACADVER
  1
AC1018
  9
$ACADMAINTVER
 70
     0
  9
$DWGCODEPAGE
  3
ANSI_932
  9
$INSBASE
 10
0.0
 20
0.0
 30
0.0
  9
$EXTMIN
 10
-9632.029014171421
 20
-6533.258194243326
 30
0.0
  9
$EXTMAX
 10
8799.970985828579
 20
7239.543520139624
 30
0.0
  9
$LIMMIN
 10
-4200.0
 20
-2970.0
  9
$LIMMAX
 10
4200.0
 20
2970.0
  9
$ORTHOMODE
 70
     0
  9
$REGENMODE
 70
     1
  9
$FILLMODE
 70
     1
  9
$QTEXTMODE
 70
     0
  9
$MIRRTEXT
 70
     1
  9
$LTSCALE
 40
2.5
  9
$ATTMODE
 70
     1
  9
$TEXTSIZE
 40
0.2
  9
$TRACEWID
 40
0.05
  9
$TEXTSTYLE
  7
Standard
  9
$CLAYER
  8
0
  9
$CELTYPE
  6
ByLayer
  9
$CECOLOR
 62
   256
  9
$CELTSCALE
 40
1.0
  9
$DISPSILH
 70
     0
  9
$DIMSCALE
 40
1.0
  9
$DIMASZ
 40
30.00001907348633
  9
$DIMEXO
 40
1.0
  9
$DIMDLI
 40
10.0
  9
$DIMRND
 40
0.0
  9
$DIMDLE
 40
0.0
  9
$DIMEXE
 40
1.0
  9
$DIMTP
 40
0.0
  9
$DIMTM
 40
0.0
  9
$DIMTXT
 40
35.0
  9
$DIMCEN
 40
0.0
  9
$DIMTSZ
 40
0.0
  9
$DIMTOL
 70
     0
  9
$DIMLIM
 70
     0
  9
$DIMTIH
 70
     0
  9
$DIMTOH
 70
     0
  9
$DIMSE1
 70
     0
  9
$DIMSE2
 70
     0
  9
$DIMTAD
 70
     1
  9
$DIMZIN
 70
     8
  9
$DIMBLK
  1

  9
$DIMASO
 70
     1
  9
$DIMSHO
 70
     1
  9
$DIMPOST
  1

  9
$DIMAPOST
  1

  9
$DIMALT
 70
     0
  9
$DIMALTD
 70
     2
  9
$DIMALTF
 40
0.0393700787401575
  9
$DIMLFAC
 40
1.0
  9
$DIMTOFL
 70
     0
  9
$DIMTVP
 40
0.0
  9
$DIMTIX
 70
     0
  9
$DIMSOXD
 70
     0
  9
$DIMSAH
 70
     0
  9
$DIMBLK1
  1

  9
$DIMBLK2
  1

  9
$DIMSTYLE
  2
Standard
  9
$DIMCLRD
 70
     0
  9
$DIMCLRE
 70
     0
  9
$DIMCLRT
 70
     0
  9
$DIMTFAC
 40
0.65
  9
$DIMGAP
 40
0.09
  9
$DIMJUST
 70
     0
  9
$DIMSD1
 70
     0
  9
$DIMSD2
 70
     0
  9
$DIMTOLJ
 70
     0
  9
$DIMTZIN
 70
     0
  9
$DIMALTZ
 70
     0
  9
$DIMALTTZ
 70
     0
  9
$DIMUPT
 70
     0
  9
$DIMDEC
 70
     1
  9
$DIMTDEC
 70
     1
  9
$DIMALTU
 70
     2
  9
$DIMALTTD
 70
     1
  9
$DIMTXSTY
  7
Standard
  9
$DIMAUNIT
 70
     0
  9
$DIMADEC
 70
     1
  9
$DIMALTRND
 40
0.0
  9
$DIMAZIN
 70
     2
  9
$DIMDSEP
 70
    46
  9
$DIMATFIT
 70
     3
  9
$DIMFRAC
 70
     0
  9
$DIMLDRBLK
  1

  9
$DIMLUNIT
 70
     2
  9
$DIMLWD
 70
    -2
  9
$DIMLWE
 70
    -2
  9
$DIMTMOVE
 70
     0
  9
$LUNITS
 70
     2
  9
$LUPREC
 70
     4
  9
$SKETCHINC
 40
0.1
  9
$FILLETRAD
 40
0.5
  9
$AUNITS
 70
     0
  9
$AUPREC
 70
     0
  9
$MENU
  1
.
  9
$ELEVATION
 40
0.0
  9
$PELEVATION
 40
0.0
  9
$THICKNESS
 40
0.0
  9
$LIMCHECK
 70
     0
  9
$CHAMFERA
 40
0.0
  9
$CHAMFERB
 40
0.0
  9
$CHAMFERC
 40
0.0
  9
$CHAMFERD
 40
0.0
  9
$SKPOLY
 70
     0
  9
$TDCREATE
 40
2459716.64694485
  9
$TDUCREATE
 40
2459716.27194485
  9
$TDUPDATE
 40
2459716.646945092
  9
$TDUUPDATE
 40
2459716.271945092
  9
$TDINDWG
 40
0.0000000116
  9
$TDUSRTIMER
 40
0.0000000116
  9
$USRTIMER
 70
     1
  9
$ANGBASE
 50
0.0
  9
$ANGDIR
 70
     0
  9
$PDMODE
 70
     0
  9
$PDSIZE
 40
1.0
  9
$PLINEWID
 40
0.0
  9
$SPLFRAME
 70
     0
  9
$SPLINETYPE
 70
     6
  9
$SPLINESEGS
 70
     8
  9
$HANDSEED
  5
41A
  9
$SURFTAB1
 70
     6
  9
$SURFTAB2
 70
     6
  9
$SURFTYPE
 70
     6
  9
$SURFU
 70
     6
  9
$SURFV
 70
     6
  9
$UCSBASE
  2

  9
$UCSNAME
  2

  9
$UCSORG
 10
0.0
 20
0.0
 30
0.0
  9
$UCSXDIR
 10
1.0
 20
0.0
 30
0.0
  9
$UCSYDIR
 10
0.0
 20
1.0
 30
0.0
  9
$UCSORTHOREF
  2

  9
$UCSORTHOVIEW
 70
     0
  9
$UCSORGTOP
 10
0.0
 20
0.0
 30
0.0
  9
$UCSORGBOTTOM
 10
0.0
 20
0.0
 30
0.0
  9
$UCSORGLEFT
 10
0.0
 20
0.0
 30
0.0
  9
$UCSORGRIGHT
 10
0.0
 20
0.0
 30
0.0
  9
$UCSORGFRONT
 10
0.0
 20
0.0
 30
0.0
  9
$UCSORGBACK
 10
0.0
 20
0.0
 30
0.0
  9
$PUCSBASE
  2

  9
$PUCSNAME
  2

  9
$PUCSORG
 10
0.0
 20
0.0
 30
0.0
  9
$PUCSXDIR
 10
1.0
 20
0.0
 30
0.0
  9
$PUCSYDIR
 10
0.0
 20
1.0
 30
0.0
  9
$PUCSORTHOREF
  2

  9
$PUCSORTHOVIEW
 70
     0
  9
$PUCSORGTOP
 10
0.0
 20
0.0
 30
0.0
  9
$PUCSORGBOTTOM
 10
0.0
 20
0.0
 30
0.0
  9
$PUCSORGLEFT
 10
0.0
 20
0.0
 30
0.0
  9
$PUCSORGRIGHT
 10
0.0
 20
0.0
 30
0.0
  9
$PUCSORGFRONT
 10
0.0
 20
0.0
 30
0.0
  9
$PUCSORGBACK
 10
0.0
 20
0.0
 30
0.0
  9
$USERI1
 70
     0
  9
$USERI2
 70
     0
  9
$USERI3
 70
     0
  9
$USERI4
 70
     0
  9
$USERI5
 70
     0
  9
$USERR1
 40
0.0
  9
$USERR2
 40
0.0
  9
$USERR3
 40
0.0
  9
$USERR4
 40
0.0
  9
$USERR5
 40
0.0
  9
$WORLDVIEW
 70
     1
  9
$SHADEDGE
 70
     3
  9
$SHADEDIF
 70
    70
  9
$TILEMODE
 70
     1
  9
$MAXACTVP
 70
    64
  9
$PINSBASE
 10
0.0
 20
0.0
 30
0.0
  9
$PLIMCHECK
 70
     0
  9
$PEXTMIN
 10
1.000000000000000E+20
 20
1.000000000000000E+20
 30
1.000000000000000E+20
  9
$PEXTMAX
 10
-1.000000000000000E+20
 20
-1.000000000000000E+20
 30
-1.000000000000000E+20
  9
$PLIMMIN
 10
0.0
 20
0.0
  9
$PLIMMAX
 10
12.0
 20
9.0
  9
$UNITMODE
 70
     0
  9
$VISRETAIN
 70
     0
  9
$PLINEGEN
 70
     1
  9
$PSLTSCALE
 70
     0
  9
$TREEDEPTH
 70
  3020
  9
$CMLSTYLE
  2
Standard
  9
$CMLJUST
 70
     0
  9
$CMLSCALE
 40
1.0
  9
$PROXYGRAPHICS
 70
     0
  9
$MEASUREMENT
 70
     1
  9
$CELWEIGHT
370
    -1
  9
$ENDCAPS
280
     0
  9
$JOINSTYLE
280
     0
  9
$LWDISPLAY
290
     1
  9
$INSUNITS
 70
     4
  9
$HYPERLINKBASE
  1

  9
$STYLESHEET
  1

  9
$XEDIT
290
     1
  9
$CEPSNTYPE
380
     0
  9
$PSTYLEMODE
290
     1
  9
$FINGERPRINTGUID
  2
{d2529998-d388-4547-a449-abe8d8efdcc8}
  9
$VERSIONGUID
  2
{FAEB1C32-E019-11D5-929B-00C0DF256EC4}
  9
$EXTNAMES
290
     1
  9
$PSVPSCALE
 40
0.0
  9
$OLESTARTUP
290
     0
  9
$SORTENTS
280
   127
  9
$INDEXCTL
280
     0
  9
$HIDETEXT
280
     1
  9
$XCLIPFRAME
290
     0
  9
$HALOGAP
280
     0
  9
$OBSCOLOR
 70
   257
  9
$OBSLTYPE
280
     0
  9
$INTERSECTIONDISPLAY
280
     0
  9
$INTERSECTIONCOLOR
 70
   257
  9
$DIMASSOC
280
     2
  9
$PROJECTNAME
  1

  0
ENDSEC
  0
SECTION
  2
CLASSES
  0
CLASS
  1
ACDBDICTIONARYWDFLT
  2
AcDbDictionaryWithDefault
  3
ObjectDBX Classes
 90
        0
 91
        3
280
     0
281
     0
  0
CLASS
  1
VISUALSTYLE
  2
AcDbVisualStyle
  3
ObjectDBX Classes
 90
     4095
 91
        3
280
     0
281
     0
  0
CLASS
  1
MATERIAL
  2
AcDbMaterial
  3
ObjectDBX Classes
 90
     1153
 91
        3
280
     0
281
     0
  0
CLASS
  1
SCALE
  2
AcDbScale
  3
ObjectDBX Classes
 90
     1153
 91
        3
280
     0
281
     0
  0
CLASS
  1
TABLESTYLE
  2
AcDbTableStyle
  3
ObjectDBX Classes
 90
     4095
 91
        3
280
     0
281
     0
  0
CLASS
  1
MLEADERSTYLE
  2
AcDbMLeaderStyle
  3
ACDB_MLEADERSTYLE_CLASS
 90
     4095
 91
        3
280
     0
281
     0
  0
CLASS
  1
SUN
  2
AcDbSun
  3
SCENEOE
 90
     1153
 91
        3
280
     0
281
     0
  0
CLASS
  1
DICTIONARYVAR
  2
AcDbDictionaryVar
  3
ObjectDBX Classes
 90
        0
 91
        3
280
     0
281
     0
  0
CLASS
  1
CELLSTYLEMAP
  2
AcDbCellStyleMap
  3
ObjectDBX Classes
 90
     1152
 91
        3
280
     0
281
     0
  0
ENDSEC
  0
SECTION
  2
TABLES
  0
TABLE
  2
VPORT
  5
8
102
{ACAD_XDICTIONARY
360
3D3
102
}
330
0
100
AcDbSymbolTable
 70
     1
  0
VPORT
  5
29
330
8
100
AcDbSymbolTableRecord
100
AcDbViewportTableRecord
  2
*Active
 70
     0
 10
0.0
 20
0.0
 11
1.0
 21
1.0
 12
-416.0290141714203
 22
413.246276228436
 13
0.0
 23
0.0
 14
0.5
 24
0.5
 15
0.5
 25
0.5
 16
0.0
 26
0.0
 36
1.0
 17
0.0
 27
0.0
 37
0.0
 40
4560.141211798418
 41
1.374273231667859
 42
50.0
 43
0.0
 44
0.0
 50
0.0
 51
0.0
 71
     0
 72
  1000
 73
     1
 74
     1
 75
     0
 76
     0
 77
     0
 78
     0
281
     0
 65
     1
110
0.0
120
0.0
130
0.0
111
1.0
121
0.0
131
0.0
112
0.0
122
1.0
132
0.0
 79
     0
146
0.0
  0
ENDTAB
  0
TABLE
  2
LTYPE
  5
5
330
0
100
AcDbSymbolTable
 70
    67
  0
LTYPE
  5
14
330
5
100
AcDbSymbolTableRecord
100
AcDbLinetypeTableRecord
  2
ByBlock
 70
     0
  3

 72
    65
 73
     0
 40
0.0
  0
LTYPE
  5
15
330
5
100
AcDbSymbolTableRecord
100
AcDbLinetypeTableRecord
  2
ByLayer
 70
     0
  3

 72
    65
 73
     0
 40
0.0
  0
LTYPE
  5
16
330
5
100
AcDbSymbolTableRecord
100
AcDbLinetypeTableRecord
  2
Continuous
 70
     0
  3
Solid line
 72
    65
 73
     0
 40
0.0
  0
LTYPE
  5
6F
330
5
100
AcDbSymbolTableRecord
100
AcDbLinetypeTableRecord
  2
HIDDENX2
 70
     0
  3
Hidden (2x) ____ ____ ____ ____ ____ ____ ____ 
 72
    65
 73
     2
 40
19.05
 49
12.7
 74
     0
 49
-6.35
 74
     0
  0
LTYPE
  5
70
330
5
100
AcDbSymbolTableRecord
100
AcDbLinetypeTableRecord
  2
HIDDEN
 70
     0
  3
Hidden __ __ __ __ __ __ __ __ __ __ __ __ __ __
 72
    65
 73
     2
 40
9.524999999999999
 49
6.35
 74
     0
 49
-3.175
 74
     0
  0
LTYPE
  5
71
330
5
100
AcDbSymbolTableRecord
100
AcDbLinetypeTableRecord
  2
HIDDEN2
 70
     0
  3
Hidden (.5x) _ _ _ _ _ _ _ _ _ _ _ _ _ _ _ _ _ 
 72
    65
 73
     2
 40
4.762499999999999
 49
3.175
 74
     0
 49
-1.5875
 74
     0
  0
LTYPE
  5
72
330
5
100
AcDbSymbolTableRecord
100
AcDbLinetypeTableRecord
  2
DASHED
 70
     0
  3
Dashed __ __ __ __ __ __ __ __ __ __ __ __ __ _
 72
    65
 73
     2
 40
19.05
 49
12.7
 74
     0
 49
-6.35
 74
     0
  0
LTYPE
  5
73
330
5
100
AcDbSymbolTableRecord
100
AcDbLinetypeTableRecord
  2
DASHED2
 70
     0
  3
Dashed (.5x) _ _ _ _ _ _ _ _ _ _ _ _ _ _ _ _ _ 
 72
    65
 73
     2
 40
9.524999999999999
 49
6.35
 74
     0
 49
-3.175
 74
     0
  0
LTYPE
  5
74
330
5
100
AcDbSymbolTableRecord
100
AcDbLinetypeTableRecord
  2
DASHEDX2
 70
     0
  3
Dashed (2x) ____  ____  ____  ____  ____  ___
 72
    65
 73
     2
 40
38.09999999999999
 49
25.4
 74
     0
 49
-12.7
 74
     0
  0
LTYPE
  5
75
330
5
100
AcDbSymbolTableRecord
100
AcDbLinetypeTableRecord
  2
DOTX2
 70
     0
  3
Dot (2x) .  .  .  .  .  .  .  .  .  .  .  .  .  .
 72
    65
 73
     2
 40
12.7
 49
0.0
 74
     0
 49
-12.7
 74
     0
  0
LTYPE
  5
76
330
5
100
AcDbSymbolTableRecord
100
AcDbLinetypeTableRecord
  2
DOT
 70
     0
  3
Dot . . . . . . . . . . . . . . . . . . . . . . . .
 72
    65
 73
     2
 40
6.35
 49
0.0
 74
     0
 49
-6.35
 74
     0
  0
LTYPE
  5
77
330
5
100
AcDbSymbolTableRecord
100
AcDbLinetypeTableRecord
  2
DOT2
 70
     0
  3
Dot (.5x) ........................................
 72
    65
 73
     2
 40
3.175
 49
0.0
 74
     0
 49
-3.175
 74
     0
  0
LTYPE
  5
78
330
5
100
AcDbSymbolTableRecord
100
AcDbLinetypeTableRecord
  2
CENTERX2
 70
     0
  3
Center (2x) ________  __  ________  __  _____
 72
    65
 73
     4
 40
101.6
 49
63.5
 74
     0
 49
-12.7
 74
     0
 49
12.7
 74
     0
 49
-12.7
 74
     0
  0
LTYPE
  5
79
330
5
100
AcDbSymbolTableRecord
100
AcDbLinetypeTableRecord
  2
CENTER
 70
     0
  3
Center ____ _ ____ _ ____ _ ____ _ ____ _ ____
 72
    65
 73
     4
 40
50.8
 49
31.75
 74
     0
 49
-6.35
 74
     0
 49
6.35
 74
     0
 49
-6.35
 74
     0
  0
LTYPE
  5
7A
330
5
100
AcDbSymbolTableRecord
100
AcDbLinetypeTableRecord
  2
CENTER2
 70
     0
  3
Center (.5x) ___ _ ___ _ ___ _ ___ _ ___ _ ___
 72
    65
 73
     4
 40
28.575
 49
19.05
 74
     0
 49
-3.175
 74
     0
 49
3.175
 74
     0
 49
-3.175
 74
     0
  0
LTYPE
  5
7B
330
5
100
AcDbSymbolTableRecord
100
AcDbLinetypeTableRecord
  2
DASHDOTX2
 70
     0
  3
Dash dot (2x) ____  .  ____  .  ____  .  ___
 72
    65
 73
     4
 40
50.8
 49
25.4
 74
     0
 49
-12.7
 74
     0
 49
0.0
 74
     0
 49
-12.7
 74
     0
  0
LTYPE
  5
7C
330
5
100
AcDbSymbolTableRecord
100
AcDbLinetypeTableRecord
  2
DASHDOT
 70
     0
  3
Dash dot __ . __ . __ . __ . __ . __ . __ . __
 72
    65
 73
     4
 40
25.4
 49
12.7
 74
     0
 49
-6.35
 74
     0
 49
0.0
 74
     0
 49
-6.35
 74
     0
  0
LTYPE
  5
7D
330
5
100
AcDbSymbolTableRecord
100
AcDbLinetypeTableRecord
  2
DASHDOT2
 70
     0
  3
Dash dot (.5x) _._._._._._._._._._._._._._._.
 72
    65
 73
     4
 40
12.7
 49
6.35
 74
     0
 49
-3.175
 74
     0
 49
0.0
 74
     0
 49
-3.175
 74
     0
  0
LTYPE
  5
7E
330
5
100
AcDbSymbolTableRecord
100
AcDbLinetypeTableRecord
  2
DIVIDEX2
 70
     0
  3
Divide (2x) ________  .  .  ________  .  .  _
 72
    65
 73
     6
 40
63.5
 49
25.4
 74
     0
 49
-12.7
 74
     0
 49
0.0
 74
     0
 49
-12.7
 74
     0
 49
0.0
 74
     0
 49
-12.7
 74
     0
  0
LTYPE
  5
7F
330
5
100
AcDbSymbolTableRecord
100
AcDbLinetypeTableRecord
  2
DIVIDE
 70
     0
  3
Divide ____ . . ____ . . ____ . . ____ . . ____
 72
    65
 73
     6
 40
31.75
 49
12.7
 74
     0
 49
-6.35
 74
     0
 49
0.0
 74
     0
 49
-6.35
 74
     0
 49
0.0
 74
     0
 49
-6.35
 74
     0
  0
LTYPE
  5
80
330
5
100
AcDbSymbolTableRecord
100
AcDbLinetypeTableRecord
  2
DIVIDE2
 70
     0
  3
Divide (.5x) __..__..__..__..__..__..__..__.._
 72
    65
 73
     6
 40
15.875
 49
6.35
 74
     0
 49
-3.175
 74
     0
 49
0.0
 74
     0
 49
-3.175
 74
     0
 49
0.0
 74
     0
 49
-3.175
 74
     0
  0
LTYPE
  5
81
330
5
100
AcDbSymbolTableRecord
100
AcDbLinetypeTableRecord
  2
BORDERX2
 70
     0
  3
Border (2x) ____  ____  .  ____  ____  .  ___
 72
    65
 73
     6
 40
88.89999999999999
 49
25.4
 74
     0
 49
-12.7
 74
     0
 49
25.4
 74
     0
 49
-12.7
 74
     0
 49
0.0
 74
     0
 49
-12.7
 74
     0
  0
LTYPE
  5
82
330
5
100
AcDbSymbolTableRecord
100
AcDbLinetypeTableRecord
  2
BORDER
 70
     0
  3
Border __ __ . __ __ . __ __ . __ __ . __ __ .
 72
    65
 73
     6
 40
44.45
 49
12.7
 74
     0
 49
-6.35
 74
     0
 49
12.7
 74
     0
 49
-6.35
 74
     0
 49
0.0
 74
     0
 49
-6.35
 74
     0
  0
LTYPE
  5
83
330
5
100
AcDbSymbolTableRecord
100
AcDbLinetypeTableRecord
  2
BORDER2
 70
     0
  3
Border (.5x) __.__.__.__.__.__.__.__.__.__.__.
 72
    65
 73
     6
 40
22.225
 49
6.35
 74
     0
 49
-3.175
 74
     0
 49
6.35
 74
     0
 49
-3.175
 74
     0
 49
0.0
 74
     0
 49
-3.175
 74
     0
  0
LTYPE
  5
84
330
5
100
AcDbSymbolTableRecord
100
AcDbLinetypeTableRecord
  2
PHANTOMX2
 70
     0
  3
Phantom (2x) ____________    ____    ____   _
 72
    65
 73
     6
 40
127.0
 49
63.5
 74
     0
 49
-12.7
 74
     0
 49
12.7
 74
     0
 49
-12.7
 74
     0
 49
12.7
 74
     0
 49
-12.7
 74
     0
  0
LTYPE
  5
85
330
5
100
AcDbSymbolTableRecord
100
AcDbLinetypeTableRecord
  2
PHANTOM
 70
     0
  3
Phantom ______  __  __  ______  __  __  ______ 
 72
    65
 73
     6
 40
63.5
 49
31.75
 74
     0
 49
-6.35
 74
     0
 49
6.35
 74
     0
 49
-6.35
 74
     0
 49
6.35
 74
     0
 49
-6.35
 74
     0
  0
LTYPE
  5
86
330
5
100
AcDbSymbolTableRecord
100
AcDbLinetypeTableRecord
  2
PHANTOM2
 70
     0
  3
Phantom (.5x) ___ _ _ ___ _ _ ___ _ _ ___ _ _
 72
    65
 73
     6
 40
31.75
 49
15.875
 74
     0
 49
-3.175
 74
     0
 49
3.175
 74
     0
 49
-3.175
 74
     0
 49
3.175
 74
     0
 49
-3.175
 74
     0
  0
LTYPE
  5
87
330
5
100
AcDbSymbolTableRecord
100
AcDbLinetypeTableRecord
  2
ACAD_ISO06W100
 70
     0
  3
ISO long-dash triple-dot ____ ... ____ ... ____
 72
    65
 73
     8
 40
36.0
 49
24.0
 74
     0
 49
-3.0
 74
     0
 49
0.0
 74
     0
 49
-3.0
 74
     0
 49
0.0
 74
     0
 49
-3.0
 74
     0
 49
0.0
 74
     0
 49
-3.0
 74
     0
  0
LTYPE
  5
88
330
5
100
AcDbSymbolTableRecord
100
AcDbLinetypeTableRecord
  2
ACAD_ISO13W100
 70
     0
  3
ISO double-dash double-dot __ __ . . __ __ . . _
 72
    65
 73
     8
 40
36.0
 49
12.0
 74
     0
 49
-3.0
 74
     0
 49
12.0
 74
     0
 49
-3.0
 74
     0
 49
0.0
 74
     0
 49
-3.0
 74
     0
 49
0.0
 74
     0
 49
-3.0
 74
     0
  0
LTYPE
  5
89
330
5
100
AcDbSymbolTableRecord
100
AcDbLinetypeTableRecord
  2
ACAD_ISO14W100
 70
     0
  3
ISO dash triple-dot __ . . . __ . . . __ . . . _
 72
    65
 73
     8
 40
24.0
 49
12.0
 74
     0
 49
-3.0
 74
     0
 49
0.0
 74
     0
 49
-3.0
 74
     0
 49
0.0
 74
     0
 49
-3.0
 74
     0
 49
0.0
 74
     0
 49
-3.0
 74
     0
  0
LTYPE
  5
8A
330
5
100
AcDbSymbolTableRecord
100
AcDbLinetypeTableRecord
  2
ACAD_ISO02W100
 70
     0
  3
ISO dash __ __ __ __ __ __ __ __ __ __ __ __ __
 72
    65
 73
     2
 40
15.0
 49
12.0
 74
     0
 49
-3.0
 74
     0
  0
LTYPE
  5
8B
330
5
100
AcDbSymbolTableRecord
100
AcDbLinetypeTableRecord
  2
ACAD_ISO03W100
 70
     0
  3
ISO dash space __    __    __    __    __    __
 72
    65
 73
     2
 40
30.0
 49
12.0
 74
     0
 49
-18.0
 74
     0
  0
LTYPE
  5
8C
330
5
100
AcDbSymbolTableRecord
100
AcDbLinetypeTableRecord
  2
ACAD_ISO04W100
 70
     0
  3
ISO long-dash dot ____ . ____ . ____ . ____ . _
 72
    65
 73
     4
 40
30.0
 49
24.0
 74
     0
 49
-3.0
 74
     0
 49
0.0
 74
     0
 49
-3.0
 74
     0
  0
LTYPE
  5
8D
330
5
100
AcDbSymbolTableRecord
100
AcDbLinetypeTableRecord
  2
ACAD_ISO05W100
 70
     0
  3
ISO long-dash double-dot ____ .. ____ .. ____ . 
 72
    65
 73
     6
 40
33.0
 49
24.0
 74
     0
 49
-3.0
 74
     0
 49
0.0
 74
     0
 49
-3.0
 74
     0
 49
0.0
 74
     0
 49
-3.0
 74
     0
  0
LTYPE
  5
8E
330
5
100
AcDbSymbolTableRecord
100
AcDbLinetypeTableRecord
  2
ACAD_ISO07W100
 70
     0
  3
ISO dot . . . . . . . . . . . . . . . . . . . . 
 72
    65
 73
     2
 40
3.0
 49
0.0
 74
     0
 49
-3.0
 74
     0
  0
LTYPE
  5
8F
330
5
100
AcDbSymbolTableRecord
100
AcDbLinetypeTableRecord
  2
ACAD_ISO08W100
 70
     0
  3
ISO long-dash short-dash ____ __ ____ __ ____ _
 72
    65
 73
     4
 40
36.0
 49
24.0
 74
     0
 49
-3.0
 74
     0
 49
6.0
 74
     0
 49
-3.0
 74
     0
  0
LTYPE
  5
90
330
5
100
AcDbSymbolTableRecord
100
AcDbLinetypeTableRecord
  2
ACAD_ISO09W100
 70
     0
  3
ISO long-dash double-short-dash ____ __ __ ____
 72
    65
 73
     6
 40
45.0
 49
24.0
 74
     0
 49
-3.0
 74
     0
 49
6.0
 74
     0
 49
-3.0
 74
     0
 49
6.0
 74
     0
 49
-3.0
 74
     0
  0
LTYPE
  5
91
330
5
100
AcDbSymbolTableRecord
100
AcDbLinetypeTableRecord
  2
ACAD_ISO10W100
 70
     0
  3
ISO dash dot __ . __ . __ . __ . __ . __ . __ . 
 72
    65
 73
     4
 40
18.0
 49
12.0
 74
     0
 49
-3.0
 74
     0
 49
0.0
 74
     0
 49
-3.0
 74
     0
  0
LTYPE
  5
92
330
5
100
AcDbSymbolTableRecord
100
AcDbLinetypeTableRecord
  2
ACAD_ISO11W100
 70
     0
  3
ISO double-dash dot __ __ . __ __ . __ __ . __ _
 72
    65
 73
     6
 40
33.0
 49
12.0
 74
     0
 49
-3.0
 74
     0
 49
12.0
 74
     0
 49
-3.0
 74
     0
 49
0.0
 74
     0
 49
-3.0
 74
     0
  0
LTYPE
  5
93
330
5
100
AcDbSymbolTableRecord
100
AcDbLinetypeTableRecord
  2
ACAD_ISO12W100
 70
     0
  3
ISO dash double-dot __ . . __ . . __ . . __ . . 
 72
    65
 73
     6
 40
21.0
 49
12.0
 74
     0
 49
-3.0
 74
     0
 49
0.0
 74
     0
 49
-3.0
 74
     0
 49
0.0
 74
     0
 49
-3.0
 74
     0
  0
LTYPE
  5
94
330
5
100
AcDbSymbolTableRecord
100
AcDbLinetypeTableRecord
  2
ACAD_ISO15W100
 70
     0
  3
ISO double-dash triple-dot __ __ . . . __ __ . .
 72
    65
 73
    10
 40
39.0
 49
12.0
 74
     0
 49
-3.0
 74
     0
 49
12.0
 74
     0
 49
-3.0
 74
     0
 49
0.0
 74
     0
 49
-3.0
 74
     0
 49
0.0
 74
     0
 49
-3.0
 74
     0
 49
0.0
 74
     0
 49
-3.0
 74
     0
  0
LTYPE
  5
95
330
5
100
AcDbSymbolTableRecord
100
AcDbLinetypeTableRecord
  2
JIS_02_0.7
 70
     0
  3
HIDDEN0.75 _ _ _ _ _ _ _ _ _ _ _ _ _ _ _ _ _ 
 72
    65
 73
     2
 40
1.35
 49
0.75
 74
     0
 49
-0.6
 74
     0
  0
LTYPE
  5
96
330
5
100
AcDbSymbolTableRecord
100
AcDbLinetypeTableRecord
  2
JIS_02_1.0
 70
     0
  3
HIDDEN01 _ _ _ _ _ _ _ _ _ _ _ _ _ _ _ _ _ 
 72
    65
 73
     2
 40
2.0
 49
1.0
 74
     0
 49
-1.0
 74
     0
  0
LTYPE
  5
97
330
5
100
AcDbSymbolTableRecord
100
AcDbLinetypeTableRecord
  2
JIS_02_1.2
 70
     0
  3
HIDDEN01.25  _ _ _ _ _ _ _ _ _ _ _ _ _ _ _ _ _ 
 72
    65
 73
     2
 40
2.5
 49
1.25
 74
     0
 49
-1.25
 74
     0
  0
LTYPE
  5
98
330
5
100
AcDbSymbolTableRecord
100
AcDbLinetypeTableRecord
  2
JIS_02_2.0
 70
     0
  3
HIDDEN02 __ __ __ __ __ __ __ __ __ __ __ 
 72
    65
 73
     2
 40
3.0
 49
2.0
 74
     0
 49
-1.0
 74
     0
  0
LTYPE
  5
99
330
5
100
AcDbSymbolTableRecord
100
AcDbLinetypeTableRecord
  2
JIS_02_4.0
 70
     0
  3
HIDDEN04 ____ ____ ____ ____ ____ ____ ____ 
 72
    65
 73
     2
 40
5.5
 49
4.0
 74
     0
 49
-1.5
 74
     0
  0
LTYPE
  5
9A
330
5
100
AcDbSymbolTableRecord
100
AcDbLinetypeTableRecord
  2
JIS_08_11
 70
     0
  3
1SASEN11 ___ _ ___ _ ___ _ ___ _ ___ _ ___
 72
    65
 73
     4
 40
12.8
 49
11.0
 74
     0
 49
-0.6
 74
     0
 49
0.6
 74
     0
 49
-0.6
 74
     0
  0
LTYPE
  5
9B
330
5
100
AcDbSymbolTableRecord
100
AcDbLinetypeTableRecord
  2
JIS_08_15
 70
     0
  3
1SASEN15 ____ _ ____ _ ____ _ ____ _ ____ 
 72
    65
 73
     4
 40
17.25
 49
15.0
 74
     0
 49
-0.75
 74
     0
 49
0.75
 74
     0
 49
-0.75
 74
     0
  0
LTYPE
  5
9C
330
5
100
AcDbSymbolTableRecord
100
AcDbLinetypeTableRecord
  2
JIS_08_25
 70
     0
  3
1SASEN25 ________  __  ________  __  _____
 72
    65
 73
     4
 40
28.0
 49
25.0
 74
     0
 49
-1.125
 74
     0
 49
0.75
 74
     0
 49
-1.125
 74
     0
  0
LTYPE
  5
9D
330
5
100
AcDbSymbolTableRecord
100
AcDbLinetypeTableRecord
  2
JIS_08_37
 70
     0
  3
1SASEN37 ________  __  ________  __  _____
 72
    65
 73
     4
 40
40.5
 49
37.5
 74
     0
 49
-1.125
 74
     0
 49
0.75
 74
     0
 49
-1.125
 74
     0
  0
LTYPE
  5
9E
330
5
100
AcDbSymbolTableRecord
100
AcDbLinetypeTableRecord
  2
JIS_08_50
 70
     0
  3
1SASEN50 _______________  __  ____________
 72
    65
 73
     4
 40
53.0
 49
50.0
 74
     0
 49
-1.125
 74
     0
 49
0.75
 74
     0
 49
-1.125
 74
     0
  0
LTYPE
  5
9F
330
5
100
AcDbSymbolTableRecord
100
AcDbLinetypeTableRecord
  2
JIS_09_08
 70
     0
  3
2SASEN8 __ _ _ __ _ _ __ _ _ __ _ _ __ _ _ 
 72
    65
 73
     6
 40
10.75
 49
8.0
 74
     0
 49
-0.55
 74
     0
 49
0.55
 74
     0
 49
-0.55
 74
     0
 49
0.55
 74
     0
 49
-0.55
 74
     0
  0
LTYPE
  5
A0
330
5
100
AcDbSymbolTableRecord
100
AcDbLinetypeTableRecord
  2
JIS_09_15
 70
     0
  3
2SASEN15 ___ _ _ ___ _ _ ___ _ _ ___ _ _ ___ 
 72
    65
 73
     6
 40
18.9
 49
15.0
 74
     0
 49
-0.9
 74
     0
 49
0.6
 74
     0
 49
-0.9
 74
     0
 49
0.6
 74
     0
 49
-0.9
 74
     0
  0
LTYPE
  5
A1
330
5
100
AcDbSymbolTableRecord
100
AcDbLinetypeTableRecord
  2
JIS_09_29
 70
     0
  3
2SASEN29 ______　__  __  ______　__  __  ___
 72
    65
 73
     6
 40
34.0
 49
29.0
 74
     0
 49
-1.2
 74
     0
 49
0.7
 74
     0
 49
-1.2
 74
     0
 49
0.7
 74
     0
 49
-1.2
 74
     0
  0
LTYPE
  5
A2
330
5
100
AcDbSymbolTableRecord
100
AcDbLinetypeTableRecord
  2
JIS_09_50
 70
     0
  3
2SASEN50 ____________　__  __  _____________
 72
    65
 73
     6
 40
55.0
 49
50.0
 74
     0
 49
-1.2
 74
     0
 49
0.7
 74
     0
 49
-1.2
 74
     0
 49
0.7
 74
     0
 49
-1.2
 74
     0
  0
LTYPE
  5
A3
330
5
100
AcDbSymbolTableRecord
100
AcDbLinetypeTableRecord
  2
SXF_破線
 70
     0
  3
02 dashed -- -- -- -- -- --
 72
    65
 73
     2
 40
7.5
 49
6.0
 74
     0
 49
-1.5
 74
     0
  0
LTYPE
  5
A4
330
5
100
AcDbSymbolTableRecord
100
AcDbLinetypeTableRecord
  2
SXF_跳び破線
 70
     0
  3
03 dashed_spaced --  --  --  --
 72
    65
 73
     2
 40
12.0
 49
6.0
 74
     0
 49
-6.0
 74
     0
  0
LTYPE
  5
A5
330
5
100
AcDbSymbolTableRecord
100
AcDbLinetypeTableRecord
  2
SXF_一点長鎖線
 70
     0
  3
04 long_dashed_dotted ---- . ---- . ----
 72
    65
 73
     4
 40
15.25
 49
12.0
 74
     0
 49
-1.5
 74
     0
 49
0.25
 74
     0
 49
-1.5
 74
     0
  0
LTYPE
  5
A6
330
5
100
AcDbSymbolTableRecord
100
AcDbLinetypeTableRecord
  2
SXF_二点長鎖線
 70
     0
  3
05 long_dashed_double-dotted ---- . . ---- 
 72
    65
 73
     6
 40
17.0
 49
12.0
 74
     0
 49
-1.5
 74
     0
 49
0.25
 74
     0
 49
-1.5
 74
     0
 49
0.25
 74
     0
 49
-1.5
 74
     0
  0
LTYPE
  5
A7
330
5
100
AcDbSymbolTableRecord
100
AcDbLinetypeTableRecord
  2
SXF_三点長鎖線
 70
     0
  3
06 long_dashed_triplicate-dotted ---- ... ---- 
 72
    65
 73
     8
 40
18.75
 49
12.0
 74
     0
 49
-1.5
 74
     0
 49
0.25
 74
     0
 49
-1.5
 74
     0
 49
0.25
 74
     0
 49
-1.5
 74
     0
 49
0.25
 74
     0
 49
-1.5
 74
     0
  0
LTYPE
  5
A8
330
5
100
AcDbSymbolTableRecord
100
AcDbLinetypeTableRecord
  2
SXF_点線
 70
     0
  3
07 dotted . . . . . . . . . . . . 
 72
    65
 73
     2
 40
1.75
 49
0.25
 74
     0
 49
-1.5
 74
     0
  0
LTYPE
  5
A9
330
5
100
AcDbSymbolTableRecord
100
AcDbLinetypeTableRecord
  2
SXF_一点鎖線
 70
     0
  3
08 chain ---- - --- - --- - ---
 72
    65
 73
     4
 40
18.5
 49
12.0
 74
     0
 49
-1.5
 74
     0
 49
3.5
 74
     0
 49
-1.5
 74
     0
  0
LTYPE
  5
AA
330
5
100
AcDbSymbolTableRecord
100
AcDbLinetypeTableRecord
  2
SXF_二点鎖線
 70
     0
  3
09 chain_double_dash ---- - - ---- - - ----
 72
    65
 73
     6
 40
23.5
 49
12.0
 74
     0
 49
-1.5
 74
     0
 49
3.5
 74
     0
 49
-1.5
 74
     0
 49
3.5
 74
     0
 49
-1.5
 74
     0
  0
LTYPE
  5
AB
330
5
100
AcDbSymbolTableRecord
100
AcDbLinetypeTableRecord
  2
SXF_一点短鎖線
 70
     0
  3
10 dashed_dotted -- . -- . -- . --
 72
    65
 73
     4
 40
9.25
 49
6.0
 74
     0
 49
-1.5
 74
     0
 49
0.25
 74
     0
 49
-1.5
 74
     0
  0
LTYPE
  5
AC
330
5
100
AcDbSymbolTableRecord
100
AcDbLinetypeTableRecord
  2
SXF_一点二短鎖線
 70
     0
  3
11 double-dashed_dotted -- -- . -- --
 72
    65
 73
     6
 40
16.75
 49
6.0
 74
     0
 49
-1.5
 74
     0
 49
6.0
 74
     0
 49
-1.5
 74
     0
 49
0.25
 74
     0
 49
-1.5
 74
     0
  0
LTYPE
  5
AD
330
5
100
AcDbSymbolTableRecord
100
AcDbLinetypeTableRecord
  2
SXF_二点短鎖線
 70
     0
  3
12 dashed_double_dotted -- . . -- . . --
 72
    65
 73
     6
 40
11.0
 49
6.0
 74
     0
 49
-1.5
 74
     0
 49
0.25
 74
     0
 49
-1.5
 74
     0
 49
0.25
 74
     0
 49
-1.5
 74
     0
  0
LTYPE
  5
AE
330
5
100
AcDbSymbolTableRecord
100
AcDbLinetypeTableRecord
  2
SXF_二点二短鎖線
 70
     0
  3
13 double-dashed_double-dotted -- -- . . -- --
 72
    65
 73
     8
 40
18.5
 49
6.0
 74
     0
 49
-1.5
 74
     0
 49
6.0
 74
     0
 49
-1.5
 74
     0
 49
0.25
 74
     0
 49
-1.5
 74
     0
 49
0.25
 74
     0
 49
-1.5
 74
     0
  0
LTYPE
  5
AF
330
5
100
AcDbSymbolTableRecord
100
AcDbLinetypeTableRecord
  2
SXF_三点短鎖線
 70
     0
  3
14 dashed triplicate-dotted -- . . . -- . . . --
 72
    65
 73
     8
 40
12.75
 49
6.0
 74
     0
 49
-1.5
 74
     0
 49
0.25
 74
     0
 49
-1.5
 74
     0
 49
0.25
 74
     0
 49
-1.5
 74
     0
 49
0.25
 74
     0
 49
-1.5
 74
     0
  0
LTYPE
  5
B0
330
5
100
AcDbSymbolTableRecord
100
AcDbLinetypeTableRecord
  2
SXF_三点二短鎖線
 70
     0
  3
15 double-dashed triplicate-dotted -- -- . . . -- -- 
 72
    65
 73
    10
 40
20.25
 49
6.0
 74
     0
 49
-1.5
 74
     0
 49
6.0
 74
     0
 49
-1.5
 74
     0
 49
0.25
 74
     0
 49
-1.5
 74
     0
 49
0.25
 74
     0
 49
-1.5
 74
     0
 49
0.25
 74
     0
 49
-1.5
 74
     0
  0
ENDTAB
  0
TABLE
  2
LAYER
  5
2
330
0
100
AcDbSymbolTable
 70
     3
  0
LAYER
  5
10
330
2
100
AcDbSymbolTableRecord
100
AcDbLayerTableRecord
  2
0
 70
     0
 62
     7
  6
Continuous
370
    -3
390
F
  0
LAYER
  5
B1
330
2
100
AcDbSymbolTableRecord
100
AcDbLayerTableRecord
  2
MAINS
 70
     0
 62
     7
  6
Continuous
370
    -3
390
F
  0
LAYER
  5
B2
330
2
100
AcDbSymbolTableRecord
100
AcDbLayerTableRecord
  2
LAYER0004
 70
     0
 62
     7
  6
Continuous
370
    -3
390
F
  0
ENDTAB
  0
TABLE
  2
STYLE
  5
3
330
0
100
AcDbSymbolTable
 70
     3
  0
STYLE
  5
11
330
3
100
AcDbSymbolTableRecord
100
AcDbTextStyleTableRecord
  2
Standard
 70
     0
 40
0.0
 41
1.0
 50
0.0
 71
     0
 42
0.2
  3
txt.shx
  4
bigfont.shx
  0
STYLE
  5
104
330
3
100
AcDbSymbolTableRecord
100
AcDbTextStyleTableRecord
  2
dcStyle0
 70
     0
 40
0.0
 41
0.8
 50
0.0
 71
     0
 42
0.2
  3
txt.shx
  4
bigfont
  0
STYLE
  5
338
330
3
100
AcDbSymbolTableRecord
100
AcDbTextStyleTableRecord
  2
dcStyle1
 70
     0
 40
0.0
 41
0.8
 50
0.0
 71
     0
 42
0.2
  3
HGRGE.TTC
  4

1001
ACAD
1000
HGSｺﾞｼｯｸE
1071
    32802
  0
ENDTAB
  0
TABLE
  2
VIEW
  5
6
330
0
100
AcDbSymbolTable
 70
     0
  0
ENDTAB
  0
TABLE
  2
UCS
  5
7
330
0
100
AcDbSymbolTable
 70
     0
  0
ENDTAB
  0
TABLE
  2
APPID
  5
9
330
0
100
AcDbSymbolTable
 70
     3
  0
APPID
  5
12
330
9
100
AcDbSymbolTableRecord
100
AcDbRegAppTableRecord
  2
ACAD
 70
     0
  0
APPID
  5
6E
330
9
100
AcDbSymbolTableRecord
100
AcDbRegAppTableRecord
  2
DaFusionOut
 70
     0
  0
APPID
  5
412
330
9
100
AcDbSymbolTableRecord
100
AcDbRegAppTableRecord
  2
ACAD_MLEADERVER
 70
     0
  0
ENDTAB
  0
TABLE
  2
DIMSTYLE
  5
A
330
0
100
AcDbSymbolTable
 70
     1
100
AcDbDimStyleTable
  0
DIMSTYLE
105
27
330
A
100
AcDbSymbolTableRecord
100
AcDbDimStyleTableRecord
  2
Standard
 70
     0
178
     0
340
11
  0
ENDTAB
  0
TABLE
  2
BLOCK_RECORD
  5
1
330
0
100
AcDbSymbolTable
 70
    25
  0
BLOCK_RECORD
  5
1F
330
1
100
AcDbSymbolTableRecord
100
AcDbBlockTableRecord
  2
*Model_Space
340
22
  0
BLOCK_RECORD
  5
1B
330
1
100
AcDbSymbolTableRecord
100
AcDbBlockTableRecord
  2
*Paper_Space
340
1E
  0
BLOCK_RECORD
  5
23
330
1
100
AcDbSymbolTableRecord
100
AcDbBlockTableRecord
  2
*Paper_Space0
340
26
  0
BLOCK_RECORD
  5
B4
330
1
100
AcDbSymbolTableRecord
100
AcDbBlockTableRecord
  2
DC_IMAGEDIMGROUP_1
340
0
102
{BLKREFS
331
3BA
102
}
  0
BLOCK_RECORD
  5
B7
330
1
100
AcDbSymbolTableRecord
100
AcDbBlockTableRecord
  2
DC_IMAGEDIMGROUP_2
340
0
102
{BLKREFS
331
3C0
102
}
  0
BLOCK_RECORD
  5
BA
330
1
100
AcDbSymbolTableRecord
100
AcDbBlockTableRecord
  2
DC_IMAGEDIMGROUP_3
340
0
102
{BLKREFS
331
3C1
102
}
  0
BLOCK_RECORD
  5
BD
330
1
100
AcDbSymbolTableRecord
100
AcDbBlockTableRecord
  2
DC_IMAGEDIMGROUP_4
340
0
102
{BLKREFS
331
3C2
102
}
  0
BLOCK_RECORD
  5
C0
330
1
100
AcDbSymbolTableRecord
100
AcDbBlockTableRecord
  2
DC_IMAGEDIMGROUP_5
340
0
102
{BLKREFS
331
3C3
102
}
  0
BLOCK_RECORD
  5
C3
330
1
100
AcDbSymbolTableRecord
100
AcDbBlockTableRecord
  2
DC_IMAGEDIMGROUP_6
340
0
102
{BLKREFS
331
3C4
102
}
  0
BLOCK_RECORD
  5
C6
330
1
100
AcDbSymbolTableRecord
100
AcDbBlockTableRecord
  2
DC_IMAGEDIMGROUP_7
340
0
102
{BLKREFS
331
3C5
102
}
  0
BLOCK_RECORD
  5
C9
330
1
100
AcDbSymbolTableRecord
100
AcDbBlockTableRecord
  2
DC_IMAGEDIMGROUP_8
340
0
102
{BLKREFS
331
3C6
102
}
  0
BLOCK_RECORD
  5
CC
330
1
100
AcDbSymbolTableRecord
100
AcDbBlockTableRecord
  2
DC_IMAGEDIMGROUP_9
340
0
102
{BLKREFS
331
3C7
102
}
  0
BLOCK_RECORD
  5
CF
330
1
100
AcDbSymbolTableRecord
100
AcDbBlockTableRecord
  2
DC_IMAGEDIMGROUP_10
340
0
102
{BLKREFS
331
3C8
102
}
  0
BLOCK_RECORD
  5
D2
330
1
100
AcDbSymbolTableRecord
100
AcDbBlockTableRecord
  2
DC_IMAGEDIMGROUP_11
340
0
102
{BLKREFS
331
3C9
102
}
  0
BLOCK_RECORD
  5
D5
330
1
100
AcDbSymbolTableRecord
100
AcDbBlockTableRecord
  2
DC_IMAGEDIMGROUP_12
340
0
102
{BLKREFS
331
3CA
102
}
  0
BLOCK_RECORD
  5
D8
330
1
100
AcDbSymbolTableRecord
100
AcDbBlockTableRecord
  2
DC_IMAGEDIMGROUP_13
340
0
102
{BLKREFS
331
3CB
102
}
  0
BLOCK_RECORD
  5
DB
330
1
100
AcDbSymbolTableRecord
100
AcDbBlockTableRecord
  2
DC_GROUP_HA19-2119Ｇ_1
340
0
102
{BLKREFS
331
3CC
102
}
  0
BLOCK_RECORD
  5
DE
330
1
100
AcDbSymbolTableRecord
100
AcDbBlockTableRecord
  2
DC_GROUP_HA19-2119Ｇ_2
340
0
102
{BLKREFS
331
3BB
102
}
  0
BLOCK_RECORD
  5
E1
330
1
100
AcDbSymbolTableRecord
100
AcDbBlockTableRecord
  2
DC_GROUP_HA19-2119Ｇ_3
340
0
102
{BLKREFS
331
3BC
102
}
  0
BLOCK_RECORD
  5
E4
330
1
100
AcDbSymbolTableRecord
100
AcDbBlockTableRecord
  2
DC_GROUP_HA19-2119Ｇ_4
340
0
102
{BLKREFS
331
3BD
102
}
  0
BLOCK_RECORD
  5
E7
330
1
100
AcDbSymbolTableRecord
100
AcDbBlockTableRecord
  2
DC_GROUP_HA19-2119Ｇ_5
340
0
102
{BLKREFS
331
3BE
102
}
  0
BLOCK_RECORD
  5
EA
330
1
100
AcDbSymbolTableRecord
100
AcDbBlockTableRecord
  2
DC_GROUP_HA19-2119Ｇ_6
340
0
102
{BLKREFS
331
3BF
102
}
  0
BLOCK_RECORD
  5
ED
330
1
100
AcDbSymbolTableRecord
100
AcDbBlockTableRecord
  2
DC_GROUP_HA19-2119Ｇ_7
340
0
102
{BLKREFS
331
3CD
102
}
  0
BLOCK_RECORD
  5
F0
330
1
100
AcDbSymbolTableRecord
100
AcDbBlockTableRecord
  2
DC_GROUP_HA19-2119Ｇ_8
340
0
102
{BLKREFS
331
3CE
102
}
  0
BLOCK_RECORD
  5
F3
330
1
100
AcDbSymbolTableRecord
100
AcDbBlockTableRecord
  2
DC_GROUP_HA19-2119Ｇ_9
340
0
102
{BLKREFS
331
3CF
102
}
  0
BLOCK_RECORD
  5
F6
330
1
100
AcDbSymbolTableRecord
100
AcDbBlockTableRecord
  2
DC_GROUP_HA19-2119Ｇ_10
340
0
102
{BLKREFS
331
3D0
102
}
  0
BLOCK_RECORD
  5
FC
330
1
100
AcDbSymbolTableRecord
100
AcDbBlockTableRecord
  2
_Open30
340
0
102
{BLKREFS
331
102
331
103
331
10D
331
10F
331
111
331
112
331
119
331
11A
331
11F
331
120
331
125
331
126
331
12B
331
12C
331
131
331
132
331
137
331
138
331
13D
331
13E
331
147
331
149
331
14B
331
14C
331
155
331
157
331
158
331
15F
331
161
331
167
331
169
331
16C
331
1CF
331
1D3
331
1D7
331
1DB
102
}
  0
ENDTAB
  0
ENDSEC
  0
SECTION
  2
BLOCKS
  0
BLOCK
  5
20
330
1F
100
AcDbEntity
  8
0
100
AcDbBlockBegin
  2
*Model_Space
 70
     0
 10
0.0
 20
0.0
 30
0.0
  3
*Model_Space
  1

  0
ENDBLK
  5
21
330
1F
100
AcDbEntity
  8
0
100
AcDbBlockEnd
  0
BLOCK
  5
1C
330
1B
100
AcDbEntity
 67
     1
  8
0
100
AcDbBlockBegin
  2
*Paper_Space
 70
     0
 10
0.0
 20
0.0
 30
0.0
  3
*Paper_Space
  1

  0
ENDBLK
  5
1D
330
1B
100
AcDbEntity
 67
     1
  8
0
100
AcDbBlockEnd
  0
BLOCK
  5
24
330
23
100
AcDbEntity
  8
0
100
AcDbBlockBegin
  2
*Paper_Space0
 70
     0
 10
0.0
 20
0.0
 30
0.0
  3
*Paper_Space0
  1

  0
ENDBLK
  5
25
330
23
100
AcDbEntity
  8
0
100
AcDbBlockEnd
  0
BLOCK
  5
B5
330
B4
100
AcDbEntity
  8
0
100
AcDbBlockBegin
  2
DC_IMAGEDIMGROUP_1
 70
     0
 10
0.0
 20
0.0
 30
0.0
  3
DC_IMAGEDIMGROUP_1
  1

  0
LINE
  5
F9
330
B4
100
AcDbEntity
  8
0
  6
Continuous
 62
     4
370
    13
100
AcDbLine
 10
-307.9507785778892
 20
-1438.857330806131
 30
0.0
 11
-762.450778577796
 21
-1438.857330806131
 31
0.0
  0
LINE
  5
FA
330
B4
100
AcDbEntity
  8
0
  6
Continuous
 62
     4
370
    13
100
AcDbLine
 10
-245.2507785778892
 20
-863.8573308061306
 30
0.0
 11
-762.450778577796
 21
-863.8573308061306
 31
0.0
  0
LINE
  5
FB
330
B4
100
AcDbEntity
  8
0
  6
Continuous
 62
     4
370
    13
100
AcDbLine
 10
-746.450778577796
 20
-1438.857330806131
 30
0.0
 11
-746.450778577796
 21
-863.8573308061306
 31
0.0
  0
INSERT
  5
102
330
B4
100
AcDbEntity
  8
0
 62
     4
100
AcDbBlockReference
  2
_Open30
 10
-746.450778577796
 20
-1438.857330806131
 30
0.0
 41
30.00002807615286
 42
29.99989368223643
 50
270.0
  0
INSERT
  5
103
330
B4
100
AcDbEntity
  8
0
 62
     4
100
AcDbBlockReference
  2
_Open30
 10
-746.450778577796
 20
-863.8573308061306
 30
0.0
 41
30.00002807615286
 42
29.99989368223643
 50
90.0
  0
TEXT
  5
105
330
B4
100
AcDbEntity
  8
0
 62
     2
100
AcDbText
 10
-770.450778577796
 20
-1173.309987560051
 30
0.0
 40
40.0
  1
575
 50
90.0
 41
0.7957894736842114
  7
dcStyle0
 72
     5
 11
-770.450778577796
 21
-1086.90998756005
 31
0.0
100
AcDbText
  0
ENDBLK
  5
B6
330
B4
100
AcDbEntity
  8
0
100
AcDbBlockEnd
  0
BLOCK
  5
B8
330
B7
100
AcDbEntity
  8
0
100
AcDbBlockBegin
  2
DC_IMAGEDIMGROUP_2
 70
     0
 10
0.0
 20
0.0
 30
0.0
  3
DC_IMAGEDIMGROUP_2
  1

  0
LINE
  5
106
330
B7
100
AcDbEntity
  8
MAINS
  6
Continuous
 62
     4
370
    18
100
AcDbLine
 10
247.5492214221109
 20
1369.212929742885
 30
0.0
 11
247.5492214221109
 21
1902.32428944901
 31
0.0
  0
LINE
  5
107
330
B7
100
AcDbEntity
  8
MAINS
  6
Continuous
 62
     4
370
    18
100
AcDbLine
 10
397.549221422204
 20
1369.212929742885
 30
0.0
 11
397.549221422204
 21
1902.32428944901
 31
0.0
  0
LINE
  5
108
330
B7
100
AcDbEntity
  8
MAINS
  6
Continuous
 62
     4
370
    18
100
AcDbLine
 10
397.549221422204
 20
1886.32428944901
 30
0.0
 11
247.5492214221109
 21
1886.32428944901
 31
0.0
  0
LINE
  5
109
330
B7
100
AcDbEntity
  8
MAINS
  6
Continuous
 62
     4
370
    18
100
AcDbLine
 10
1217.549221422018
 20
1369.212929742885
 30
0.0
 11
1217.549221422018
 21
1902.32428944901
 31
0.0
  0
LINE
  5
10A
330
B7
100
AcDbEntity
  8
MAINS
  6
Continuous
 62
     4
370
    18
100
AcDbLine
 10
1367.549221422018
 20
1369.212929742885
 30
0.0
 11
1367.549221422018
 21
1902.32428944901
 31
0.0
  0
LINE
  5
10B
330
B7
100
AcDbEntity
  8
MAINS
  6
Continuous
 62
     4
370
    18
100
AcDbLine
 10
1367.549221422018
 20
1886.32428944901
 30
0.0
 11
1217.549221422018
 21
1886.32428944901
 31
0.0
  0
LINE
  5
10C
330
B7
100
AcDbEntity
  8
MAINS
  6
Continuous
 62
     4
370
    18
100
AcDbLine
 10
57.31277342211084
 20
1886.32428944901
 30
0.0
 11
247.5492214221109
 21
1886.32428944901
 31
0.0
  0
INSERT
  5
10D
330
B7
100
AcDbEntity
  8
MAINS
 62
     4
100
AcDbBlockReference
  2
_Open30
 10
247.5492214221109
 20
1886.32428944901
 30
0.0
 41
30.00002807615286
 42
29.99989368223643
 50
360.0
  0
LINE
  5
10E
330
B7
100
AcDbEntity
  8
MAINS
  6
Continuous
 62
     4
370
    18
100
AcDbLine
 10
1557.785669422018
 20
1886.32428944901
 30
0.0
 11
1367.549221422018
 21
1886.32428944901
 31
0.0
  0
INSERT
  5
10F
330
B7
100
AcDbEntity
  8
MAINS
 62
     4
100
AcDbBlockReference
  2
_Open30
 10
1367.549221422018
 20
1886.32428944901
 30
0.0
 41
30.00002807615286
 42
29.99989368223643
 50
180.0
  0
LINE
  5
110
330
B7
100
AcDbEntity
  8
MAINS
  6
Continuous
 62
     4
370
    18
100
AcDbLine
 10
397.549221422204
 20
1886.32428944901
 30
0.0
 11
1217.549221422018
 21
1886.32428944901
 31
0.0
  0
INSERT
  5
111
330
B7
100
AcDbEntity
  8
MAINS
 62
     4
100
AcDbBlockReference
  2
_Open30
 10
397.549221422204
 20
1886.32428944901
 30
0.0
 41
30.00002807615286
 42
29.99989368223643
 50
180.0
  0
INSERT
  5
112
330
B7
100
AcDbEntity
  8
MAINS
 62
     4
100
AcDbBlockReference
  2
_Open30
 10
1217.549221422018
 20
1886.32428944901
 30
0.0
 41
30.00002807615286
 42
29.99989368223643
 50
360.0
  0
TEXT
  5
113
330
B7
100
AcDbEntity
  8
MAINS
 62
     2
100
AcDbText
 10
130.9127734221108
 20
1902.324289449009
 30
0.0
 40
40.0
  1
150
 41
0.8842105263157894
  7
dcStyle0
 72
     5
 11
226.9127734221108
 21
1902.324289449009
 31
0.0
100
AcDbText
  0
TEXT
  5
114
330
B7
100
AcDbEntity
  8
MAINS
 62
     2
100
AcDbText
 10
759.5492214221108
 20
1902.324289449009
 30
0.0
 40
40.0
  1
820
 41
0.8842105263157894
  7
dcStyle0
 72
     5
 11
855.5492214221108
 21
1902.324289449009
 31
0.0
100
AcDbText
  0
TEXT
  5
115
330
B7
100
AcDbEntity
  8
MAINS
 62
     2
100
AcDbText
 10
1388.185669422018
 20
1902.324289449009
 30
0.0
 40
40.0
  1
150
 41
0.8842105263157894
  7
dcStyle0
 72
     5
 11
1484.185669422018
 21
1902.324289449009
 31
0.0
100
AcDbText
  0
ENDBLK
  5
B9
330
B7
100
AcDbEntity
  8
0
100
AcDbBlockEnd
  0
BLOCK
  5
BB
330
BA
100
AcDbEntity
  8
0
100
AcDbBlockBegin
  2
DC_IMAGEDIMGROUP_3
 70
     0
 10
0.0
 20
0.0
 30
0.0
  3
DC_IMAGEDIMGROUP_3
  1

  0
LINE
  5
116
330
BA
100
AcDbEntity
  8
MAINS
  6
Continuous
 62
     4
370
    18
100
AcDbLine
 10
307.549221422204
 20
269.0478837675727
 30
0.0
 11
307.549221422204
 21
-347.7870702569992
 31
0.0
  0
LINE
  5
117
330
BA
100
AcDbEntity
  8
MAINS
  6
Continuous
 62
     4
370
    18
100
AcDbLine
 10
1307.549221422204
 20
234.1295631742883
 30
0.0
 11
1307.549221422204
 21
-347.7870702569992
 31
0.0
  0
LINE
  5
118
330
BA
100
AcDbEntity
  8
MAINS
  6
Continuous
 62
     4
370
    18
100
AcDbLine
 10
307.549221422204
 20
-331.7870702569992
 30
0.0
 11
1307.549221422204
 21
-331.7870702569992
 31
0.0
  0
INSERT
  5
119
330
BA
100
AcDbEntity
  8
MAINS
 62
     4
100
AcDbBlockReference
  2
_Open30
 10
307.549221422204
 20
-331.7870702569992
 30
0.0
 41
30.00002807615286
 42
29.99989368223643
 50
180.0
  0
INSERT
  5
11A
330
BA
100
AcDbEntity
  8
MAINS
 62
     4
100
AcDbBlockReference
  2
_Open30
 10
1307.549221422204
 20
-331.7870702569992
 30
0.0
 41
30.00002807615286
 42
29.99989368223643
 50
360.0
  0
TEXT
  5
11B
330
BA
100
AcDbEntity
  8
MAINS
 62
     2
100
AcDbText
 10
727.5065014384334
 20
-315.7870702569992
 30
0.0
 40
40.0
  1
1000
 41
0.8727272727272728
  7
dcStyle0
 72
     5
 11
855.5065014384334
 21
-315.7870702569992
 31
0.0
100
AcDbText
  0
ENDBLK
  5
BC
330
BA
100
AcDbEntity
  8
0
100
AcDbBlockEnd
  0
BLOCK
  5
BE
330
BD
100
AcDbEntity
  8
0
100
AcDbBlockBegin
  2
DC_IMAGEDIMGROUP_4
 70
     0
 10
0.0
 20
0.0
 30
0.0
  3
DC_IMAGEDIMGROUP_4
  1

  0
LINE
  5
11C
330
BD
100
AcDbEntity
  8
MAINS
  6
Continuous
 62
     4
370
    18
100
AcDbLine
 10
-292.4507785777961
 20
233.2129297433966
 30
0.0
 11
-292.4507785777961
 21
-683.7870702569994
 31
0.0
  0
LINE
  5
11D
330
BD
100
AcDbEntity
  8
MAINS
  6
Continuous
 62
     4
370
    18
100
AcDbLine
 10
1907.549221422204
 20
233.2129297433966
 30
0.0
 11
1907.549221422204
 21
-683.7870702569994
 31
0.0
  0
LINE
  5
11E
330
BD
100
AcDbEntity
  8
MAINS
  6
Continuous
 62
     4
370
    18
100
AcDbLine
 10
-292.4507785777961
 20
-667.7870702569994
 30
0.0
 11
1907.549221422204
 21
-667.7870702569994
 31
0.0
  0
INSERT
  5
11F
330
BD
100
AcDbEntity
  8
MAINS
 62
     4
100
AcDbBlockReference
  2
_Open30
 10
-292.4507785777961
 20
-667.7870702569994
 30
0.0
 41
30.00002807615286
 42
29.99989368223643
 50
180.0
  0
INSERT
  5
120
330
BD
100
AcDbEntity
  8
MAINS
 62
     4
100
AcDbBlockReference
  2
_Open30
 10
1907.549221422204
 20
-667.7870702569994
 30
0.0
 41
30.00002807615286
 42
29.99989368223643
 50
360.0
  0
TEXT
  5
121
330
BD
100
AcDbEntity
  8
MAINS
 62
     2
100
AcDbText
 10
734.7285963553666
 20
-651.7870702569994
 30
0.0
 40
40.0
  1
2200
 41
0.8727272727272728
  7
dcStyle0
 72
     5
 11
862.7285963553666
 21
-651.7870702569994
 31
0.0
100
AcDbText
  0
ENDBLK
  5
BF
330
BD
100
AcDbEntity
  8
0
100
AcDbBlockEnd
  0
BLOCK
  5
C1
330
C0
100
AcDbEntity
  8
0
100
AcDbBlockBegin
  2
DC_IMAGEDIMGROUP_5
 70
     0
 10
0.0
 20
0.0
 30
0.0
  3
DC_IMAGEDIMGROUP_5
  1

  0
LINE
  5
122
330
C0
100
AcDbEntity
  8
MAINS
  6
Continuous
 62
     4
370
    18
100
AcDbLine
 10
-267.4507785777961
 20
264.9693464099742
 30
0.0
 11
-267.4507785777961
 21
-571.7870702569992
 31
0.0
  0
LINE
  5
123
330
C0
100
AcDbEntity
  8
MAINS
  6
Continuous
 62
     4
370
    18
100
AcDbLine
 10
1882.549221422204
 20
264.9693464099742
 30
0.0
 11
1882.549221422204
 21
-571.7870702569992
 31
0.0
  0
LINE
  5
124
330
C0
100
AcDbEntity
  8
MAINS
  6
Continuous
 62
     4
370
    18
100
AcDbLine
 10
-267.4507785777961
 20
-555.7870702569992
 30
0.0
 11
1882.549221422204
 21
-555.7870702569992
 31
0.0
  0
INSERT
  5
125
330
C0
100
AcDbEntity
  8
MAINS
 62
     4
100
AcDbBlockReference
  2
_Open30
 10
-267.4507785777961
 20
-555.7870702569992
 30
0.0
 41
30.00002807615286
 42
29.99989368223643
 50
180.0
  0
INSERT
  5
126
330
C0
100
AcDbEntity
  8
MAINS
 62
     4
100
AcDbBlockReference
  2
_Open30
 10
1882.549221422204
 20
-555.7870702569992
 30
0.0
 41
30.00002807615286
 42
29.99989368223643
 50
360.0
  0
TEXT
  5
127
330
C0
100
AcDbEntity
  8
MAINS
 62
     2
100
AcDbText
 10
740.5062722889132
 20
-539.7870702569992
 30
0.0
 40
40.0
  1
2150
 41
0.8727272727272728
  7
dcStyle0
 72
     5
 11
868.5062722889132
 21
-539.7870702569992
 31
0.0
100
AcDbText
  0
ENDBLK
  5
C2
330
C0
100
AcDbEntity
  8
0
100
AcDbBlockEnd
  0
BLOCK
  5
C4
330
C3
100
AcDbEntity
  8
0
100
AcDbBlockBegin
  2
DC_IMAGEDIMGROUP_6
 70
     0
 10
0.0
 20
0.0
 30
0.0
  3
DC_IMAGEDIMGROUP_6
  1

  0
LINE
  5
128
330
C3
100
AcDbEntity
  8
MAINS
  6
Continuous
 62
     4
370
    18
100
AcDbLine
 10
-242.4507785777961
 20
-171.7870702569992
 30
0.0
 11
-242.4507785777961
 21
-459.7870702569992
 31
0.0
  0
LINE
  5
129
330
C3
100
AcDbEntity
  8
MAINS
  6
Continuous
 62
     4
370
    18
100
AcDbLine
 10
1857.549221422204
 20
-171.7870702569992
 30
0.0
 11
1857.549221422204
 21
-459.7870702569992
 31
0.0
  0
LINE
  5
12A
330
C3
100
AcDbEntity
  8
MAINS
  6
Continuous
 62
     4
370
    18
100
AcDbLine
 10
-242.4507785777961
 20
-443.7870702569992
 30
0.0
 11
1857.549221422204
 21
-443.7870702569992
 31
0.0
  0
INSERT
  5
12B
330
C3
100
AcDbEntity
  8
MAINS
 62
     4
100
AcDbBlockReference
  2
_Open30
 10
-242.4507785777961
 20
-443.7870702569992
 30
0.0
 41
30.00002807615286
 42
29.99989368223643
 50
180.0
  0
INSERT
  5
12C
330
C3
100
AcDbEntity
  8
MAINS
 62
     4
100
AcDbBlockReference
  2
_Open30
 10
1857.549221422204
 20
-443.7870702569992
 30
0.0
 41
30.00002807615286
 42
29.99989368223643
 50
360.0
  0
TEXT
  5
12D
330
C3
100
AcDbEntity
  8
MAINS
 62
     2
100
AcDbText
 10
742.432164266762
 20
-427.7870702569992
 30
0.0
 40
40.0
  1
2100
 41
0.8727272727272728
  7
dcStyle0
 72
     5
 11
870.432164266762
 21
-427.7870702569992
 31
0.0
100
AcDbText
  0
ENDBLK
  5
C5
330
C3
100
AcDbEntity
  8
0
100
AcDbBlockEnd
  0
BLOCK
  5
C7
330
C6
100
AcDbEntity
  8
0
100
AcDbBlockBegin
  2
DC_IMAGEDIMGROUP_7
 70
     0
 10
0.0
 20
0.0
 30
0.0
  3
DC_IMAGEDIMGROUP_7
  1

  0
LINE
  5
12E
330
C6
100
AcDbEntity
  8
MAINS
  6
Continuous
 62
     4
370
    18
100
AcDbLine
 10
-250.4507785777961
 20
-163.7870702569992
 30
0.0
 11
-620.4507785779824
 21
-163.7870702569992
 31
0.0
  0
LINE
  5
12F
330
C6
100
AcDbEntity
  8
MAINS
  6
Continuous
 62
     4
370
    18
100
AcDbLine
 10
-250.4507785777961
 20
1766.212929743094
 30
0.0
 11
-620.4507785779824
 21
1766.212929743094
 31
0.0
  0
LINE
  5
130
330
C6
100
AcDbEntity
  8
MAINS
  6
Continuous
 62
     4
370
    18
100
AcDbLine
 10
-604.4507785779824
 20
-163.7870702569992
 30
0.0
 11
-604.4507785779824
 21
1766.212929743094
 31
0.0
  0
INSERT
  5
131
330
C6
100
AcDbEntity
  8
MAINS
 62
     4
100
AcDbBlockReference
  2
_Open30
 10
-604.4507785779824
 20
-163.7870702569992
 30
0.0
 41
30.00002807615286
 42
29.99989368223643
 50
270.0
  0
INSERT
  5
132
330
C6
100
AcDbEntity
  8
MAINS
 62
     4
100
AcDbBlockReference
  2
_Open30
 10
-604.4507785779824
 20
1766.212929743094
 30
0.0
 41
30.00002807615286
 42
29.99989368223643
 50
90.0
  0
TEXT
  5
133
330
C6
100
AcDbEntity
  8
MAINS
 62
     2
100
AcDbText
 10
-620.4507785779824
 20
763.595765082251
 30
0.0
 40
40.0
  1
1930
 50
90.0
 41
0.8727272727272728
  7
dcStyle0
 72
     5
 11
-620.4507785779824
 21
891.595765082251
 31
0.0
100
AcDbText
  0
ENDBLK
  5
C8
330
C6
100
AcDbEntity
  8
0
100
AcDbBlockEnd
  0
BLOCK
  5
CA
330
C9
100
AcDbEntity
  8
0
100
AcDbBlockBegin
  2
DC_IMAGEDIMGROUP_8
 70
     0
 10
0.0
 20
0.0
 30
0.0
  3
DC_IMAGEDIMGROUP_8
  1

  0
LINE
  5
134
330
C9
100
AcDbEntity
  8
MAINS
  6
Continuous
 62
     4
370
    18
100
AcDbLine
 10
279.1862800252225
 20
301.2129297430008
 30
0.0
 11
-508.4507785779824
 21
301.2129297430008
 31
0.0
  0
LINE
  5
135
330
C9
100
AcDbEntity
  8
MAINS
  6
Continuous
 62
     4
370
    18
100
AcDbLine
 10
279.1862800252225
 20
1301.212929743001
 30
0.0
 11
-508.4507785779824
 21
1301.212929743001
 31
0.0
  0
LINE
  5
136
330
C9
100
AcDbEntity
  8
MAINS
  6
Continuous
 62
     4
370
    18
100
AcDbLine
 10
-492.4507785779824
 20
301.2129297430008
 30
0.0
 11
-492.4507785779824
 21
1301.212929743001
 31
0.0
  0
INSERT
  5
137
330
C9
100
AcDbEntity
  8
MAINS
 62
     4
100
AcDbBlockReference
  2
_Open30
 10
-492.4507785779824
 20
301.2129297430008
 30
0.0
 41
30.00002807615286
 42
29.99989368223643
 50
270.0
  0
INSERT
  5
138
330
C9
100
AcDbEntity
  8
MAINS
 62
     4
100
AcDbBlockReference
  2
_Open30
 10
-492.4507785779824
 20
1301.212929743001
 30
0.0
 41
30.00002807615286
 42
29.99989368223643
 50
90.0
  0
TEXT
  5
139
330
C9
100
AcDbEntity
  8
MAINS
 62
     2
100
AcDbText
 10
-508.4507785779823
 20
749.9005332397704
 30
0.0
 40
40.0
  1
1000
 50
90.0
 41
0.8727272727272728
  7
dcStyle0
 72
     5
 11
-508.4507785779823
 21
877.9005332397704
 31
0.0
100
AcDbText
  0
ENDBLK
  5
CB
330
C9
100
AcDbEntity
  8
0
100
AcDbBlockEnd
  0
BLOCK
  5
CD
330
CC
100
AcDbEntity
  8
0
100
AcDbBlockBegin
  2
DC_IMAGEDIMGROUP_9
 70
     0
 10
0.0
 20
0.0
 30
0.0
  3
DC_IMAGEDIMGROUP_9
  1

  0
LINE
  5
13A
330
CC
100
AcDbEntity
  8
MAINS
  6
Continuous
 62
     4
370
    18
100
AcDbLine
 10
-355.5152510063191
 20
316.2129297417901
 30
0.0
 11
-396.4507785779824
 21
316.2129297417901
 31
0.0
  0
LINE
  5
13B
330
CC
100
AcDbEntity
  8
MAINS
  6
Continuous
 62
     4
370
    18
100
AcDbLine
 10
-347.5152510063191
 20
1286.212929743001
 30
0.0
 11
-396.4507785779824
 21
1286.212929743001
 31
0.0
  0
LINE
  5
13C
330
CC
100
AcDbEntity
  8
MAINS
  6
Continuous
 62
     4
370
    18
100
AcDbLine
 10
-380.4507785779824
 20
316.2129297417901
 30
0.0
 11
-380.4507785779824
 21
1286.212929743001
 31
0.0
  0
INSERT
  5
13D
330
CC
100
AcDbEntity
  8
MAINS
 62
     4
100
AcDbBlockReference
  2
_Open30
 10
-380.4507785779824
 20
316.2129297417901
 30
0.0
 41
30.00002807615286
 42
29.99989368223643
 50
270.0
  0
INSERT
  5
13E
330
CC
100
AcDbEntity
  8
MAINS
 62
     4
100
AcDbBlockReference
  2
_Open30
 10
-380.4507785779824
 20
1286.212929743001
 30
0.0
 41
30.00002807615286
 42
29.99989368223643
 50
90.0
  0
TEXT
  5
13F
330
CC
100
AcDbEntity
  8
MAINS
 62
     2
100
AcDbText
 10
-396.4507785779824
 20
759.05291731853
 30
0.0
 40
40.0
  1
970
 50
90.0
 41
0.8842105263157894
  7
dcStyle0
 72
     5
 11
-396.4507785779824
 21
855.05291731853
 31
0.0
100
AcDbText
  0
ENDBLK
  5
CE
330
CC
100
AcDbEntity
  8
0
100
AcDbBlockEnd
  0
BLOCK
  5
D0
330
CF
100
AcDbEntity
  8
0
100
AcDbBlockBegin
  2
DC_IMAGEDIMGROUP_10
 70
     0
 10
0.0
 20
0.0
 30
0.0
  3
DC_IMAGEDIMGROUP_10
  1

  0
LINE
  5
140
330
CF
100
AcDbEntity
  8
MAINS
  6
Continuous
 62
     4
370
    18
100
AcDbLine
 10
1375.549221422018
 20
241.2129297430008
 30
0.0
 11
2167.733073885047
 21
241.2129297430008
 31
0.0
  0
LINE
  5
141
330
CF
100
AcDbEntity
  8
MAINS
  6
Continuous
 62
     4
370
    18
100
AcDbLine
 10
1375.549221422018
 20
391.2129297430008
 30
0.0
 11
2167.733073885047
 21
391.2129297430008
 31
0.0
  0
LINE
  5
142
330
CF
100
AcDbEntity
  8
MAINS
  6
Continuous
 62
     4
370
    18
100
AcDbLine
 10
2151.733073885047
 20
391.2129297430008
 30
0.0
 11
2151.733073885047
 21
241.2129297430008
 31
0.0
  0
LINE
  5
143
330
CF
100
AcDbEntity
  8
MAINS
  6
Continuous
 62
     4
370
    18
100
AcDbLine
 10
1375.549221422018
 20
1211.212929742884
 30
0.0
 11
2167.733073885047
 21
1211.212929742884
 31
0.0
  0
LINE
  5
144
330
CF
100
AcDbEntity
  8
MAINS
  6
Continuous
 62
     4
370
    18
100
AcDbLine
 10
1375.549221422018
 20
1361.212929742885
 30
0.0
 11
2167.733073885047
 21
1361.212929742885
 31
0.0
  0
LINE
  5
145
330
CF
100
AcDbEntity
  8
MAINS
  6
Continuous
 62
     4
370
    18
100
AcDbLine
 10
2151.733073885047
 20
1361.212929742885
 30
0.0
 11
2151.733073885047
 21
1211.212929742884
 31
0.0
  0
LINE
  5
146
330
CF
100
AcDbEntity
  8
MAINS
  6
Continuous
 62
     4
370
    18
100
AcDbLine
 10
2151.733073885047
 20
50.9764817430008
 30
0.0
 11
2151.733073885047
 21
241.2129297430008
 31
0.0
  0
INSERT
  5
147
330
CF
100
AcDbEntity
  8
MAINS
 62
     4
100
AcDbBlockReference
  2
_Open30
 10
2151.733073885047
 20
241.2129297430008
 30
0.0
 41
30.00002807615286
 42
29.99989368223643
 50
90.0
  0
LINE
  5
148
330
CF
100
AcDbEntity
  8
MAINS
  6
Continuous
 62
     4
370
    18
100
AcDbLine
 10
2151.733073885047
 20
1551.449377742885
 30
0.0
 11
2151.733073885047
 21
1361.212929742885
 31
0.0
  0
INSERT
  5
149
330
CF
100
AcDbEntity
  8
MAINS
 62
     4
100
AcDbBlockReference
  2
_Open30
 10
2151.733073885047
 20
1361.212929742885
 30
0.0
 41
30.00002807615286
 42
29.99989368223643
 50
270.0
  0
LINE
  5
14A
330
CF
100
AcDbEntity
  8
MAINS
  6
Continuous
 62
     4
370
    18
100
AcDbLine
 10
2151.733073885047
 20
391.2129297430008
 30
0.0
 11
2151.733073885047
 21
1211.212929742884
 31
0.0
  0
INSERT
  5
14B
330
CF
100
AcDbEntity
  8
MAINS
 62
     4
100
AcDbBlockReference
  2
_Open30
 10
2151.733073885047
 20
391.2129297430008
 30
0.0
 41
30.00002807615286
 42
29.99989368223643
 50
270.0
  0
INSERT
  5
14C
330
CF
100
AcDbEntity
  8
MAINS
 62
     4
100
AcDbBlockReference
  2
_Open30
 10
2151.733073885047
 20
1211.212929742884
 30
0.0
 41
30.00002807615286
 42
29.99989368223643
 50
90.0
  0
TEXT
  5
14D
330
CF
100
AcDbEntity
  8
MAINS
 62
     2
100
AcDbText
 10
2135.733073885047
 20
124.5764817430008
 30
0.0
 40
40.0
  1
150
 50
90.0
 41
0.8842105263157894
  7
dcStyle0
 72
     5
 11
2135.733073885047
 21
220.5764817430008
 31
0.0
100
AcDbText
  0
TEXT
  5
14E
330
CF
100
AcDbEntity
  8
MAINS
 62
     2
100
AcDbText
 10
2135.733073885047
 20
753.2129297429426
 30
0.0
 40
40.0
  1
820
 50
90.0
 41
0.8842105263157894
  7
dcStyle0
 72
     5
 11
2135.733073885047
 21
849.2129297429426
 31
0.0
100
AcDbText
  0
TEXT
  5
14F
330
CF
100
AcDbEntity
  8
MAINS
 62
     2
100
AcDbText
 10
2135.733073885047
 20
1381.849377742885
 30
0.0
 40
40.0
  1
150
 50
90.0
 41
0.8842105263157894
  7
dcStyle0
 72
     5
 11
2135.733073885047
 21
1477.849377742885
 31
0.0
100
AcDbText
  0
ENDBLK
  5
D1
330
CF
100
AcDbEntity
  8
0
100
AcDbBlockEnd
  0
BLOCK
  5
D3
330
D2
100
AcDbEntity
  8
0
100
AcDbBlockBegin
  2
DC_IMAGEDIMGROUP_11
 70
     0
 10
0.0
 20
0.0
 30
0.0
  3
DC_IMAGEDIMGROUP_11
  1

  0
LINE
  5
150
330
D2
100
AcDbEntity
  8
MAINS
  6
Continuous
 62
     4
370
    18
100
AcDbLine
 10
-307.9507785778892
 20
-1438.857330806131
 30
0.0
 11
-650.4507785777961
 21
-1438.857330806131
 31
0.0
  0
LINE
  5
151
330
D2
100
AcDbEntity
  8
MAINS
  6
Continuous
 62
     4
370
    18
100
AcDbLine
 10
-250.4507785777961
 20
-1363.857330806131
 30
0.0
 11
-650.4507785777961
 21
-1363.857330806131
 31
0.0
  0
LINE
  5
152
330
D2
100
AcDbEntity
  8
MAINS
  6
Continuous
 62
     4
370
    18
100
AcDbLine
 10
-634.4507785777961
 20
-1363.857330806131
 30
0.0
 11
-634.4507785777961
 21
-1438.857330806131
 31
0.0
  0
LINE
  5
153
330
D2
100
AcDbEntity
  8
MAINS
  6
Continuous
 62
     4
370
    18
100
AcDbLine
 10
-245.2507785778892
 20
-863.8573308061306
 30
0.0
 11
-650.4507785777961
 21
-863.8573308061306
 31
0.0
  0
LINE
  5
154
330
D2
100
AcDbEntity
  8
MAINS
  6
Continuous
 62
     4
370
    18
100
AcDbLine
 10
-634.4507785777961
 20
-1577.893778806131
 30
0.0
 11
-634.4507785777961
 21
-1438.857330806131
 31
0.0
  0
INSERT
  5
155
330
D2
100
AcDbEntity
  8
MAINS
 62
     4
100
AcDbBlockReference
  2
_Open30
 10
-634.4507785777961
 20
-1438.857330806131
 30
0.0
 41
30.00002807615286
 42
29.99989368223643
 50
90.0
  0
LINE
  5
156
330
D2
100
AcDbEntity
  8
MAINS
  6
Continuous
 62
     4
370
    18
100
AcDbLine
 10
-634.4507785777961
 20
-1363.857330806131
 30
0.0
 11
-634.4507785777961
 21
-863.8573308061306
 31
0.0
  0
INSERT
  5
157
330
D2
100
AcDbEntity
  8
MAINS
 62
     4
100
AcDbBlockReference
  2
_Open30
 10
-634.4507785777961
 20
-1363.857330806131
 30
0.0
 41
30.00002807615286
 42
29.99989368223643
 50
270.0
  0
INSERT
  5
158
330
D2
100
AcDbEntity
  8
MAINS
 62
     4
100
AcDbBlockReference
  2
_Open30
 10
-634.4507785777961
 20
-863.8573308061306
 30
0.0
 41
30.00002807615286
 42
29.99989368223643
 50
90.0
  0
TEXT
  5
159
330
D2
100
AcDbEntity
  8
MAINS
 62
     2
100
AcDbText
 10
-650.450778577796
 20
-1523.493778806131
 30
0.0
 40
40.0
  1
75
 50
90.0
 41
0.908108108108108
  7
dcStyle0
 72
     5
 11
-650.450778577796
 21
-1459.493778806131
 31
0.0
100
AcDbText
  0
TEXT
  5
15A
330
D2
100
AcDbEntity
  8
MAINS
 62
     2
100
AcDbText
 10
-650.450778577796
 20
-1161.857330806131
 30
0.0
 40
40.0
  1
500
 50
90.0
 41
0.8842105263157894
  7
dcStyle0
 72
     5
 11
-650.450778577796
 21
-1065.857330806131
 31
0.0
100
AcDbText
  0
ENDBLK
  5
D4
330
D2
100
AcDbEntity
  8
0
100
AcDbBlockEnd
  0
BLOCK
  5
D6
330
D5
100
AcDbEntity
  8
0
100
AcDbBlockBegin
  2
DC_IMAGEDIMGROUP_12
 70
     0
 10
0.0
 20
0.0
 30
0.0
  3
DC_IMAGEDIMGROUP_12
  1

  0
LINE
  5
15B
330
D5
100
AcDbEntity
  8
MAINS
  6
Continuous
 62
     4
370
    18
100
AcDbLine
 10
-201.4507785777961
 20
-1363.857330806131
 30
0.0
 11
-538.4507785777961
 21
-1363.857330806131
 31
0.0
  0
LINE
  5
15C
330
D5
100
AcDbEntity
  8
MAINS
  6
Continuous
 62
     4
370
    18
100
AcDbLine
 10
239.5492214224834
 20
-1285.657330806154
 30
0.0
 11
-538.4507785777961
 21
-1285.657330806154
 31
0.0
  0
LINE
  5
15D
330
D5
100
AcDbEntity
  8
MAINS
  6
Continuous
 62
     4
370
    18
100
AcDbLine
 10
-522.4507785777961
 20
-1363.857330806131
 30
0.0
 11
-522.4507785777961
 21
-1285.657330806154
 31
0.0
  0
LINE
  5
15E
330
D5
100
AcDbEntity
  8
MAINS
  6
Continuous
 62
     4
370
    18
100
AcDbLine
 10
-522.4507785777961
 20
-1002.492850806154
 30
0.0
 11
-522.4507785777961
 21
-1285.657330806154
 31
0.0
  0
INSERT
  5
15F
330
D5
100
AcDbEntity
  8
MAINS
 62
     4
100
AcDbBlockReference
  2
_Open30
 10
-522.4507785777961
 20
-1285.657330806154
 30
0.0
 41
30.00002807615286
 42
29.99989368223643
 50
270.0
  0
LINE
  5
160
330
D5
100
AcDbEntity
  8
MAINS
  6
Continuous
 62
     4
370
    18
100
AcDbLine
 10
-522.4507785777961
 20
-1459.857330806131
 30
0.0
 11
-522.4507785777961
 21
-1363.857330806131
 31
0.0
  0
INSERT
  5
161
330
D5
100
AcDbEntity
  8
MAINS
 62
     4
100
AcDbBlockReference
  2
_Open30
 10
-522.4507785777961
 20
-1363.857330806131
 30
0.0
 41
30.00002807615286
 42
29.99989368223643
 50
90.0
  0
TEXT
  5
162
330
D5
100
AcDbEntity
  8
MAINS
 62
     2
100
AcDbText
 10
-538.4507785777961
 20
-1223.292850806154
 30
0.0
 40
40.0
  1
78.2
 50
90.0
 41
1.002985074626866
  7
dcStyle0
 72
     5
 11
-538.4507785777961
 21
-1095.292850806154
 31
0.0
100
AcDbText
  0
ENDBLK
  5
D7
330
D5
100
AcDbEntity
  8
0
100
AcDbBlockEnd
  0
BLOCK
  5
D9
330
D8
100
AcDbEntity
  8
0
100
AcDbBlockBegin
  2
DC_IMAGEDIMGROUP_13
 70
     0
 10
0.0
 20
0.0
 30
0.0
  3
DC_IMAGEDIMGROUP_13
  1

  0
LINE
  5
163
330
D8
100
AcDbEntity
  8
MAINS
  6
Continuous
 62
     4
370
    18
100
AcDbLine
 10
-307.9507785778892
 20
-1438.857330806131
 30
0.0
 11
-426.4507785777961
 21
-1438.857330806131
 31
0.0
  0
LINE
  5
164
330
D8
100
AcDbEntity
  8
MAINS
  6
Continuous
 62
     4
370
    18
100
AcDbLine
 10
-307.9507785778892
 20
-1432.357330806131
 30
0.0
 11
-426.4507785777961
 21
-1432.357330806131
 31
0.0
  0
LINE
  5
165
330
D8
100
AcDbEntity
  8
MAINS
  6
Continuous
 62
     4
370
    18
100
AcDbLine
 10
-410.4507785777961
 20
-1438.857330806131
 30
0.0
 11
-410.4507785777961
 21
-1432.357330806131
 31
0.0
  0
LINE
  5
166
330
D8
100
AcDbEntity
  8
MAINS
  6
Continuous
 62
     4
370
    18
100
AcDbLine
 10
-410.4507785777961
 20
-1670.821810806131
 30
0.0
 11
-410.4507785777961
 21
-1438.857330806131
 31
0.0
  0
INSERT
  5
167
330
D8
100
AcDbEntity
  8
MAINS
 62
     4
100
AcDbBlockReference
  2
_Open30
 10
-410.4507785777961
 20
-1438.857330806131
 30
0.0
 41
30.00002807615286
 42
29.99989368223643
 50
90.0
  0
LINE
  5
168
330
D8
100
AcDbEntity
  8
MAINS
  6
Continuous
 62
     4
370
    18
100
AcDbLine
 10
-410.4507785777961
 20
-1336.357330806131
 30
0.0
 11
-410.4507785777961
 21
-1432.357330806131
 31
0.0
  0
INSERT
  5
169
330
D8
100
AcDbEntity
  8
MAINS
 62
     4
100
AcDbBlockReference
  2
_Open30
 10
-410.4507785777961
 20
-1432.357330806131
 30
0.0
 41
30.00002807615286
 42
29.99989368223643
 50
270.0
  0
TEXT
  5
16A
330
D8
100
AcDbEntity
  8
MAINS
 62
     2
100
AcDbText
 10
-426.450778577796
 20
-1597.221810806131
 30
0.0
 40
40.0
  1
6.5
 50
90.0
 41
1.072340425531915
  7
dcStyle0
 72
     5
 11
-426.450778577796
 21
-1501.221810806131
 31
0.0
100
AcDbText
  0
ENDBLK
  5
DA
330
D8
100
AcDbEntity
  8
0
100
AcDbBlockEnd
  0
BLOCK
  5
DC
330
DB
100
AcDbEntity
  8
0
100
AcDbBlockBegin
  2
DC_GROUP_HA19-2119Ｇ_1
 70
     0
 10
0.0
 20
0.0
 30
0.0
  3
DC_GROUP_HA19-2119Ｇ_1
  1

  0
LINE
  5
16B
330
DB
100
AcDbEntity
  8
LAYER0004
  6
Continuous
 62
     4
370
    13
100
AcDbLine
 10
1838.837485431089
 20
-1408.930181740693
 30
0.0
 11
1919.258729269982
 21
-1537.505496184414
 31
0.0
  0
INSERT
  5
16C
330
DB
100
AcDbEntity
  8
LAYER0004
 62
     4
100
AcDbBlockReference
  2
_Open30
 10
1838.837485431089
 20
-1408.930181740693
 30
0.0
 41
30.00002807615286
 42
29.99989368223643
 50
122.0251416002132
  0
LINE
  5
16D
330
DB
100
AcDbEntity
  8
LAYER0004
  6
Continuous
 62
     4
370
    13
100
AcDbLine
 10
1919.258729269982
 20
-1537.505496184414
 30
0.0
 11
2051.258729269982
 21
-1537.505496184414
 31
0.0
  0
TEXT
  5
16E
330
DB
100
AcDbEntity
  8
LAYER0004
 62
     2
100
AcDbText
 10
1929.258729269982
 20
-1527.505496184414
 30
0.0
 40
35.0
  1
ニップル
 41
0.9739130434782609
  7
dcStyle0
 72
     5
 11
2041.258729269982
 21
-1527.505496184414
 31
0.0
100
AcDbText
  0
ENDBLK
  5
DD
330
DB
100
AcDbEntity
  8
0
100
AcDbBlockEnd
  0
BLOCK
  5
DF
330
DE
100
AcDbEntity
  8
0
100
AcDbBlockBegin
  2
DC_GROUP_HA19-2119Ｇ_2
 70
     0
 10
0.0
 20
0.0
 30
0.0
  3
DC_GROUP_HA19-2119Ｇ_2
  1

  0
LINE
  5
16F
330
DE
100
AcDbEntity
  8
0
  6
Continuous
 62
     4
370
    13
100
AcDbLine
 10
-1979.539625586459
 20
-1085.272915175149
 30
0.0
 11
-1956.298890751154
 21
-1062.032180339844
 31
0.0
  0
LINE
  5
170
330
DE
100
AcDbEntity
  8
0
  6
Continuous
 62
     4
370
    13
100
AcDbLine
 10
-1921.913630731624
 20
-1027.646920320316
 30
0.0
 11
-1904.122155329719
 21
-1009.85544491841
 31
0.0
  0
LINE
  5
171
330
DE
100
AcDbEntity
  8
0
  6
Continuous
 62
     4
370
    13
100
AcDbLine
 10
-1977.02122841651
 20
-1071.440809506215
 30
0.0
 11
-1953.780493581204
 21
-1048.20007467091
 31
0.0
  0
LINE
  5
172
330
DE
100
AcDbEntity
  8
0
  6
Continuous
 62
     4
370
    13
100
AcDbLine
 10
-1926.76822163169
 20
-1021.187802721397
 30
0.0
 11
-1915.435863828703
 21
-1009.85544491841
 31
0.0
  0
LINE
  5
173
330
DE
100
AcDbEntity
  8
0
  6
Continuous
 62
     4
370
    13
100
AcDbLine
 10
-1974.50283124656
 20
-1057.608703837281
 30
0.0
 11
-1951.262096411255
 21
-1034.367969001976
 31
0.0
  0
LINE
  5
174
330
DE
100
AcDbEntity
  8
0
  6
Continuous
 62
     4
370
    13
100
AcDbLine
 10
-1938.081930130676
 20
-1021.187802721397
 30
0.0
 11
-1926.749572327688
 21
-1009.85544491841
 31
0.0
  0
LINE
  5
175
330
DE
100
AcDbEntity
  8
0
  6
Continuous
 62
     4
370
    13
100
AcDbLine
 10
-1971.984434076611
 20
-1043.776598168348
 30
0.0
 11
-1938.063280826673
 21
-1009.85544491841
 31
0.0
  0
LINE
  5
176
330
DE
100
AcDbEntity
  8
0
  6
Continuous
 62
     4
370
    13
100
AcDbLine
 10
-1969.466036906662
 20
-1029.944492499414
 30
0.0
 11
-1946.225302069641
 21
-1006.703757662394
 31
0.0
  0
LINE
  5
177
330
DE
100
AcDbEntity
  8
0
  6
Continuous
 62
     4
370
    13
100
AcDbLine
 10
-1972.02305562763
 20
-1021.187802721397
 30
0.0
 11
-1943.706904904243
 21
-992.8716519980107
 31
0.0
  0
LINE
  5
178
330
DE
100
AcDbEntity
  8
0
  6
Continuous
 62
     4
370
    13
100
AcDbLine
 10
-1983.336764126615
 20
-1021.187802721397
 30
0.0
 11
-1972.004406323627
 21
-1009.85544491841
 31
0.0
  0
LINE
  5
179
330
DE
100
AcDbEntity
  8
0
  6
Continuous
 62
     4
370
    13
100
AcDbLine
 10
-1964.429242563255
 20
-1002.280281158038
 30
0.0
 11
-1955.011766792432
 21
-992.8628053872148
 31
0.0
  0
LINE
  5
17A
330
DE
100
AcDbEntity
  8
0
  6
Continuous
 62
     4
370
    13
100
AcDbLine
 10
-1983.367489297448
 20
-1009.904819393246
 30
0.0
 11
-1983.318114822612
 21
-1009.85544491841
 31
0.0
  0
LINE
  5
17B
330
DE
100
AcDbEntity
  8
0
  6
Continuous
 62
     4
370
    13
100
AcDbLine
 10
-1979.327364436761
 20
-1096.374362524436
 30
0.0
 11
-1958.817287921103
 21
-1075.864286008778
 31
0.0
  0
LINE
  5
17C
330
DE
100
AcDbEntity
  8
0
  6
Continuous
 62
     4
370
    13
100
AcDbLine
 10
-1938.237910254061
 20
-1055.284908341737
 30
0.0
 11
-1895.126482241599
 21
-1012.173480329275
 31
0.0
  0
LINE
  5
17D
330
DE
100
AcDbEntity
  8
0
  6
Continuous
 62
     4
370
    13
100
AcDbLine
 10
-1968.013655937776
 20
-1096.374362524436
 30
0.0
 11
-1961.335685091052
 21
-1089.696391677712
 31
0.0
  0
LINE
  5
17E
330
DE
100
AcDbEntity
  8
0
  6
Continuous
 62
     4
370
    13
100
AcDbLine
 10
-1929.653403432812
 20
-1058.014110019472
 30
0.0
 11
-1900.258723681021
 21
-1028.619430267682
 31
0.0
  0
ENDBLK
  5
E0
330
DE
100
AcDbEntity
  8
0
100
AcDbBlockEnd
  0
BLOCK
  5
E2
330
E1
100
AcDbEntity
  8
0
100
AcDbBlockBegin
  2
DC_GROUP_HA19-2119Ｇ_3
 70
     0
 10
0.0
 20
0.0
 30
0.0
  3
DC_GROUP_HA19-2119Ｇ_3
  1

  0
LINE
  5
17F
330
E1
100
AcDbEntity
  8
0
  6
Continuous
 62
     4
370
    13
100
AcDbLine
 10
-2076.187774391235
 20
-1073.209432601394
 30
0.0
 11
-2059.393199486791
 21
-1056.414857696951
 31
0.0
  0
LINE
  5
180
330
E1
100
AcDbEntity
  8
0
  6
Continuous
 62
     4
370
    13
100
AcDbLine
 10
-2047.133169913402
 20
-1044.154828123562
 30
0.0
 11
-2011.122028948286
 21
-1008.143687158447
 31
0.0
  0
LINE
  5
181
330
E1
100
AcDbEntity
  8
0
  6
Continuous
 62
     4
370
    13
100
AcDbLine
 10
-2076.187774391235
 20
-1061.89572410241
 30
0.0
 11
-2059.393199486791
 21
-1045.101149197966
 31
0.0
  0
LINE
  5
182
330
E1
100
AcDbEntity
  8
0
  6
Continuous
 62
     4
370
    13
100
AcDbLine
 10
-2058.849246703132
 20
-1044.557196414308
 30
0.0
 11
-2007.154855676039
 21
-992.8628053872148
 31
0.0
  0
LINE
  5
183
330
E1
100
AcDbEntity
  8
0
  6
Continuous
 62
     4
370
    13
100
AcDbLine
 10
-2076.187774391235
 20
-1050.582015603425
 30
0.0
 11
-2058.643417392864
 21
-1033.037658605055
 31
0.0
  0
LINE
  5
184
330
E1
100
AcDbEntity
  8
0
  6
Continuous
 62
     4
370
    13
100
AcDbLine
 10
-2021.725415824279
 20
-996.1196570364699
 30
0.0
 11
-2018.468564175023
 21
-992.8628053872148
 31
0.0
  0
LINE
  5
185
330
E1
100
AcDbEntity
  8
0
  6
Continuous
 62
     4
370
    13
100
AcDbLine
 10
-2081.476663701102
 20
-1044.557196414308
 30
0.0
 11
-2070.340829947457
 21
-1033.421362660663
 31
0.0
  0
LINE
  5
186
330
E1
100
AcDbEntity
  8
0
  6
Continuous
 62
     4
370
    13
100
AcDbLine
 10
-2092.790372200086
 20
-1044.557196414308
 30
0.0
 11
-2081.654538446442
 21
-1033.421362660663
 31
0.0
  0
LINE
  5
187
330
E1
100
AcDbEntity
  8
0
  6
Continuous
 62
     4
370
    13
100
AcDbLine
 10
-2095.787833685934
 20
-1036.24094940117
 30
0.0
 11
-2092.968246945427
 21
-1033.421362660663
 31
0.0
  0
LINE
  5
188
330
E1
100
AcDbEntity
  8
0
  6
Continuous
 62
     4
370
    13
100
AcDbLine
 10
-2076.187774391235
 20
-1084.523141100379
 30
0.0
 11
-2059.393199486791
 21
-1067.728566195936
 31
0.0
  0
LINE
  5
189
330
E1
100
AcDbEntity
  8
0
  6
Continuous
 62
     4
370
    13
100
AcDbLine
 10
-2076.187774391235
 20
-1095.836849599363
 30
0.0
 11
-2059.393199486791
 21
-1079.04227469492
 31
0.0
  0
LINE
  5
18A
330
E1
100
AcDbEntity
  8
0
  6
Continuous
 62
     4
370
    13
100
AcDbLine
 10
-2065.411578817322
 20
-1096.374362524436
 30
0.0
 11
-2059.393199486791
 21
-1090.355983193904
 31
0.0
  0
ENDBLK
  5
E3
330
E1
100
AcDbEntity
  8
0
100
AcDbBlockEnd
  0
BLOCK
  5
E5
330
E4
100
AcDbEntity
  8
0
100
AcDbBlockBegin
  2
DC_GROUP_HA19-2119Ｇ_4
 70
     0
 10
0.0
 20
0.0
 30
0.0
  3
DC_GROUP_HA19-2119Ｇ_4
  1

  0
LINE
  5
18B
330
E4
100
AcDbEntity
  8
0
  6
Continuous
 62
     4
370
    13
100
AcDbLine
 10
-2227.056801775233
 20
-1087.239601564245
 30
0.0
 11
-2217.922040815786
 21
-1078.104840604799
 31
0.0
  0
LINE
  5
18C
330
E4
100
AcDbEntity
  8
0
  6
Continuous
 62
     4
370
    13
100
AcDbLine
 10
-2182.881000384822
 20
-1043.063800173836
 30
0.0
 11
-2173.682554697379
 21
-1033.865354486392
 31
0.0
  0
LINE
  5
18D
330
E4
100
AcDbEntity
  8
0
  6
Continuous
 62
     4
370
    13
100
AcDbLine
 10
-2154.57536466695
 20
-1014.758164455964
 30
0.0
 11
-2142.309801303727
 21
-1002.492601092741
 31
0.0
  0
LINE
  5
18E
330
E4
100
AcDbEntity
  8
0
  6
Continuous
 62
     4
370
    13
100
AcDbLine
 10
-2231.387923903524
 20
-1080.257015193552
 30
0.0
 11
-2229.235749314771
 21
-1078.104840604799
 31
0.0
  0
LINE
  5
18F
330
E4
100
AcDbEntity
  8
0
  6
Continuous
 62
     4
370
    13
100
AcDbLine
 10
-2194.194708883807
 20
-1043.063800173836
 30
0.0
 11
-2184.996263196364
 21
-1033.865354486392
 31
0.0
  0
LINE
  5
190
330
E4
100
AcDbEntity
  8
0
  6
Continuous
 62
     4
370
    13
100
AcDbLine
 10
-2162.758270762904
 20
-1011.627362052933
 30
0.0
 11
-2153.623509802712
 21
-1002.492601092741
 31
0.0
  0
LINE
  5
191
330
E4
100
AcDbEntity
  8
0
  6
Continuous
 62
     4
370
    13
100
AcDbLine
 10
-2174.071979261888
 20
-1011.627362052933
 30
0.0
 11
-2164.937218301696
 21
-1002.492601092741
 31
0.0
  0
LINE
  5
192
330
E4
100
AcDbEntity
  8
0
  6
Continuous
 62
     4
370
    13
100
AcDbLine
 10
-2216.822125881776
 20
-1043.063800173836
 30
0.0
 11
-2196.000934401483
 21
-1022.242608693543
 31
0.0
  0
LINE
  5
193
330
E4
100
AcDbEntity
  8
0
  6
Continuous
 62
     4
370
    13
100
AcDbLine
 10
-2185.385687760873
 20
-1011.627362052933
 30
0.0
 11
-2176.250926800681
 21
-1002.492601092741
 31
0.0
  0
LINE
  5
194
330
E4
100
AcDbEntity
  8
0
  6
Continuous
 62
     4
370
    13
100
AcDbLine
 10
-2228.135834380761
 20
-1043.063800173836
 30
0.0
 11
-2187.564635299666
 21
-1002.492601092741
 31
0.0
  0
LINE
  5
195
330
E4
100
AcDbEntity
  8
0
  6
Continuous
 62
     4
370
    13
100
AcDbLine
 10
-2203.900217370894
 20
-1007.514474664985
 30
0.0
 11
-2198.878343798651
 21
-1002.492601092741
 31
0.0
  0
LINE
  5
196
330
E4
100
AcDbEntity
  8
0
  6
Continuous
 62
     4
370
    13
100
AcDbLine
 10
-2306.252761268126
 20
-1087.239601564246
 30
0.0
 11
-2279.446506720054
 21
-1060.433347016173
 31
0.0
  0
LINE
  5
197
330
E4
100
AcDbEntity
  8
0
  6
Continuous
 62
     4
370
    13
100
AcDbLine
 10
-2317.56646976711
 20
-1087.239601564246
 30
0.0
 11
-2275.964988112651
 21
-1045.638119909786
 31
0.0
  0
LINE
  5
198
330
E4
100
AcDbEntity
  8
0
  6
Continuous
 62
     4
370
    13
100
AcDbLine
 10
-2328.880178266095
 20
-1087.239601564246
 30
0.0
 11
-2309.335825868206
 21
-1067.695249166356
 31
0.0
  0
LINE
  5
199
330
E4
100
AcDbEntity
  8
0
  6
Continuous
 62
     4
370
    13
100
AcDbLine
 10
-2285.200418676155
 20
-1043.559841974305
 30
0.0
 11
-2272.483469505248
 21
-1030.842892803399
 31
0.0
  0
LINE
  5
19A
330
E4
100
AcDbEntity
  8
0
  6
Continuous
 62
     4
370
    13
100
AcDbLine
 10
-2340.19388676508
 20
-1087.239601564246
 30
0.0
 11
-2321.046279280619
 21
-1068.091994079785
 31
0.0
  0
LINE
  5
19B
330
E4
100
AcDbEntity
  8
0
  6
Continuous
 62
     4
370
    13
100
AcDbLine
 10
-2281.517619556926
 20
-1028.563334356092
 30
0.0
 11
-2269.001950897844
 21
-1016.047665697011
 31
0.0
  0
LINE
  5
19C
330
E4
100
AcDbEntity
  8
0
  6
Continuous
 62
     4
370
    13
100
AcDbLine
 10
-2351.507595264065
 20
-1087.239601564245
 30
0.0
 11
-2332.359987779604
 21
-1068.091994079785
 31
0.0
  0
LINE
  5
19D
330
E4
100
AcDbEntity
  8
0
  6
Continuous
 62
     4
370
    13
100
AcDbLine
 10
-2277.834820437698
 20
-1013.566826737879
 30
0.0
 11
-2271.184865473852
 21
-1006.916871774034
 31
0.0
  0
LINE
  5
19E
330
E4
100
AcDbEntity
  8
0
  6
Continuous
 62
     4
370
    13
100
AcDbLine
 10
-2362.821303763049
 20
-1087.239601564245
 30
0.0
 11
-2343.673696278589
 21
-1068.091994079785
 31
0.0
  0
LINE
  5
19F
330
E4
100
AcDbEntity
  8
0
  6
Continuous
 62
     4
370
    13
100
AcDbLine
 10
-2374.135012262034
 20
-1087.239601564245
 30
0.0
 11
-2354.987404777573
 21
-1068.091994079785
 31
0.0
  0
LINE
  5
1A0
330
E4
100
AcDbEntity
  8
0
  6
Continuous
 62
     4
370
    13
100
AcDbLine
 10
-2380.130459862938
 20
-1081.921340666164
 30
0.0
 11
-2366.301113276558
 21
-1068.091994079785
 31
0.0
  0
LINE
  5
1A1
330
E4
100
AcDbEntity
  8
0
  6
Continuous
 62
     4
370
    13
100
AcDbLine
 10
-2312.750804153457
 20
-1014.541684956685
 30
0.0
 11
-2305.868249131499
 21
-1007.659129934727
 31
0.0
  0
LINE
  5
1A2
330
E4
100
AcDbEntity
  8
0
  6
Continuous
 62
     4
370
    13
100
AcDbLine
 10
-2378.803406566634
 20
-1069.280578870876
 30
0.0
 11
-2377.614821775543
 21
-1068.091994079785
 31
0.0
  0
LINE
  5
1A3
330
E4
100
AcDbEntity
  8
0
  6
Continuous
 62
     4
370
    13
100
AcDbLine
 10
-2324.064512652443
 20
-1014.541684956685
 30
0.0
 11
-2312.015428788498
 21
-1002.492601092741
 31
0.0
  0
LINE
  5
1A4
330
E4
100
AcDbEntity
  8
0
  6
Continuous
 62
     4
370
    13
100
AcDbLine
 10
-2335.378221151428
 20
-1014.541684956685
 30
0.0
 11
-2323.329137287483
 21
-1002.492601092741
 31
0.0
  0
LINE
  5
1A5
330
E4
100
AcDbEntity
  8
0
  6
Continuous
 62
     4
370
    13
100
AcDbLine
 10
-2346.691929650412
 20
-1014.541684956685
 30
0.0
 11
-2334.642845786468
 21
-1002.492601092741
 31
0.0
  0
LINE
  5
1A6
330
E4
100
AcDbEntity
  8
0
  6
Continuous
 62
     4
370
    13
100
AcDbLine
 10
-2358.005638149397
 20
-1014.541684956685
 30
0.0
 11
-2345.956554285453
 21
-1002.492601092741
 31
0.0
  0
LINE
  5
1A7
330
E4
100
AcDbEntity
  8
0
  6
Continuous
 62
     4
370
    13
100
AcDbLine
 10
-2366.115155209362
 20
-1011.337493517665
 30
0.0
 11
-2357.270262784437
 21
-1002.492601092741
 31
0.0
  0
LINE
  5
1A8
330
E4
100
AcDbEntity
  8
0
  6
Continuous
 62
     4
370
    13
100
AcDbLine
 10
-2453.010353965213
 20
-1086.91898377453
 30
0.0
 11
-2431.79075621262
 21
-1065.699386021938
 31
0.0
  0
LINE
  5
1A9
330
E4
100
AcDbEntity
  8
0
  6
Continuous
 62
     4
370
    13
100
AcDbLine
 10
-2464.644680253913
 20
-1087.239601564246
 30
0.0
 11
-2430.311361330191
 21
-1052.906282640525
 31
0.0
  0
LINE
  5
1AA
330
E4
100
AcDbEntity
  8
0
  6
Continuous
 62
     4
370
    13
100
AcDbLine
 10
-2475.958388752897
 20
-1087.239601564246
 30
0.0
 11
-2466.086775750279
 21
-1077.367988561627
 31
0.0
  0
LINE
  5
1AB
330
E4
100
AcDbEntity
  8
0
  6
Continuous
 62
     4
370
    13
100
AcDbLine
 10
-2447.341415300776
 20
-1058.622628112124
 30
0.0
 11
-2428.861918246578
 21
-1040.143131057927
 31
0.0
  0
LINE
  5
1AC
330
E4
100
AcDbEntity
  8
0
  6
Continuous
 62
     4
370
    13
100
AcDbLine
 10
-2417.491296836394
 20
-1028.772509647743
 30
0.0
 11
-2415.684393860161
 21
-1026.96560667151
 31
0.0
  0
LINE
  5
1AD
330
E4
100
AcDbEntity
  8
0
  6
Continuous
 62
     4
370
    13
100
AcDbLine
 10
-2487.272097251882
 20
-1087.239601564245
 30
0.0
 11
-2478.137336292436
 21
-1078.104840604799
 31
0.0
  0
LINE
  5
1AE
330
E4
100
AcDbEntity
  8
0
  6
Continuous
 62
     4
370
    13
100
AcDbLine
 10
-2445.656119536204
 20
-1045.623623848568
 30
0.0
 11
-2419.670244376677
 21
-1019.637748689042
 31
0.0
  0
LINE
  5
1AF
330
E4
100
AcDbEntity
  8
0
  6
Continuous
 62
     4
370
    13
100
AcDbLine
 10
-2498.585805750867
 20
-1087.239601564245
 30
0.0
 11
-2489.45104479142
 21
-1078.104840604799
 31
0.0
  0
LINE
  5
1B0
330
E4
100
AcDbEntity
  8
0
  6
Continuous
 62
     4
370
    13
100
AcDbLine
 10
-2444.206676454681
 20
-1032.860472268061
 30
0.0
 11
-2425.573729559975
 21
-1014.227525373355
 31
0.0
  0
LINE
  5
1B1
330
E4
100
AcDbEntity
  8
0
  6
Continuous
 62
     4
370
    13
100
AcDbLine
 10
-2505.994456954061
 20
-1083.334544268455
 30
0.0
 11
-2500.764753290405
 21
-1078.104840604799
 31
0.0
  0
LINE
  5
1B2
330
E4
100
AcDbEntity
  8
0
  6
Continuous
 62
     4
370
    13
100
AcDbLine
 10
-2475.536253797402
 20
-1052.876341111796
 30
0.0
 11
-2473.209778114785
 21
-1050.549865429179
 31
0.0
  0
LINE
  5
1B3
330
E4
100
AcDbEntity
  8
0
  6
Continuous
 62
     4
370
    13
100
AcDbLine
 10
-2451.432422333348
 20
-1028.772509647743
 30
0.0
 11
-2425.152513778346
 21
-1002.492601092741
 31
0.0
  0
LINE
  5
1B4
330
E4
100
AcDbEntity
  8
0
  6
Continuous
 62
     4
370
    13
100
AcDbLine
 10
-2486.849962296386
 20
-1052.876341111796
 30
0.0
 11
-2471.758781745581
 21
-1037.785160560991
 31
0.0
  0
LINE
  5
1B5
330
E4
100
AcDbEntity
  8
0
  6
Continuous
 62
     4
370
    13
100
AcDbLine
 10
-2462.746130832333
 20
-1028.772509647743
 30
0.0
 11
-2453.611369873632
 21
-1019.637748689042
 31
0.0
  0
LINE
  5
1B6
330
E4
100
AcDbEntity
  8
0
  6
Continuous
 62
     4
370
    13
100
AcDbLine
 10
-2440.35381894447
 20
-1006.38019775988
 30
0.0
 11
-2436.466222277331
 21
-1002.492601092741
 31
0.0
  0
LINE
  5
1B7
330
E4
100
AcDbEntity
  8
0
  6
Continuous
 62
     4
370
    13
100
AcDbLine
 10
-2488.547516601356
 20
-1043.260186917781
 30
0.0
 11
-2464.925078372617
 21
-1019.637748689042
 31
0.0
  0
LINE
  5
1B8
330
E4
100
AcDbEntity
  8
0
  6
Continuous
 62
     4
370
    13
100
AcDbLine
 10
-2487.098073521499
 20
-1030.49703533894
 30
0.0
 11
-2468.283756827395
 21
-1011.682718644836
 31
0.0
  0
LINE
  5
1B9
330
E4
100
AcDbEntity
  8
0
  6
Continuous
 62
     4
370
    13
100
AcDbLine
 10
-2496.687256329287
 20
-1028.772509647743
 30
0.0
 11
-2487.552495370586
 21
-1019.637748689042
 31
0.0
  0
LINE
  5
1BA
330
E4
100
AcDbEntity
  8
0
  6
Continuous
 62
     4
370
    13
100
AcDbLine
 10
-2485.501012208102
 20
-1017.586265526558
 30
0.0
 11
-2470.407347774285
 21
-1002.492601092741
 31
0.0
  0
LINE
  5
1BB
330
E4
100
AcDbEntity
  8
0
  6
Continuous
 62
     4
370
    13
100
AcDbLine
 10
-2503.92068553096
 20
-1024.692230350431
 30
0.0
 11
-2498.866203869571
 21
-1019.637748689042
 31
0.0
  0
LINE
  5
1BC
330
E4
100
AcDbEntity
  8
0
  6
Continuous
 62
     4
370
    13
100
AcDbLine
 10
-2483.061964368057
 20
-1003.833509187528
 30
0.0
 11
-2481.72105627327
 21
-1002.492601092741
 31
0.0
  0
LINE
  5
1BD
330
E4
100
AcDbEntity
  8
0
  6
Continuous
 62
     4
370
    13
100
AcDbLine
 10
-2215.743093276248
 20
-1087.239601564245
 30
0.0
 11
-2206.608332316801
 21
-1078.104840604799
 31
0.0
  0
LINE
  5
1BE
330
E4
100
AcDbEntity
  8
0
  6
Continuous
 62
     4
370
    13
100
AcDbLine
 10
-2171.567291885837
 20
-1043.063800173836
 30
0.0
 11
-2162.368846198394
 21
-1033.865354486392
 31
0.0
  0
LINE
  5
1BF
330
E4
100
AcDbEntity
  8
0
  6
Continuous
 62
     4
370
    13
100
AcDbLine
 10
-2157.84188976164
 20
-1029.338398049638
 30
0.0
 11
-2139.939608405769
 21
-1011.436116693768
 31
0.0
  0
LINE
  5
1C0
330
E4
100
AcDbEntity
  8
0
  6
Continuous
 62
     4
370
    13
100
AcDbLine
 10
-2204.429384777263
 20
-1087.239601564245
 30
0.0
 11
-2195.294623817816
 21
-1078.104840604799
 31
0.0
  0
LINE
  5
1C1
330
E4
100
AcDbEntity
  8
0
  6
Continuous
 62
     4
370
    13
100
AcDbLine
 10
-2161.108414859574
 20
-1043.918631646557
 30
0.0
 11
-2143.116852555909
 21
-1025.927069342893
 31
0.0
  0
LINE
  5
1C2
330
E4
100
AcDbEntity
  8
0
  6
Continuous
 62
     4
370
    13
100
AcDbLine
 10
-2193.115676278278
 20
-1087.239601564246
 30
0.0
 11
-2183.277401858079
 21
-1077.401327144046
 31
0.0
  0
LINE
  5
1C3
330
E4
100
AcDbEntity
  8
0
  6
Continuous
 62
     4
370
    13
100
AcDbLine
 10
-2164.361189994123
 20
-1058.485115280091
 30
0.0
 11
-2146.294096706049
 21
-1040.418021992017
 31
0.0
  0
LINE
  5
1C4
330
E4
100
AcDbEntity
  8
0
  6
Continuous
 62
     4
370
    13
100
AcDbLine
 10
-2181.801967779294
 20
-1087.239601564246
 30
0.0
 11
-2149.471340856188
 21
-1054.908974641141
 31
0.0
  0
LINE
  5
1C5
330
E4
100
AcDbEntity
  8
0
  6
Continuous
 62
     4
370
    13
100
AcDbLine
 10
-2169.242760643766
 20
-1085.994102927704
 30
0.0
 11
-2152.795203711029
 21
-1069.546545994967
 31
0.0
  0
ENDBLK
  5
E6
330
E4
100
AcDbEntity
  8
0
100
AcDbBlockEnd
  0
BLOCK
  5
E8
330
E7
100
AcDbEntity
  8
0
100
AcDbBlockBegin
  2
DC_GROUP_HA19-2119Ｇ_5
 70
     0
 10
0.0
 20
0.0
 30
0.0
  3
DC_GROUP_HA19-2119Ｇ_5
  1

  0
LINE
  5
1C6
330
E7
100
AcDbEntity
  8
0
  6
Continuous
 62
     4
370
    13
100
AcDbLine
 10
-2123.265962668836
 20
-1013.582356602729
 30
0.0
 11
-2114.415393502657
 21
-1004.731787436551
 31
0.0
  0
LINE
  5
1C7
330
E7
100
AcDbEntity
  8
0
  6
Continuous
 62
     4
370
    13
100
AcDbLine
 10
-2107.774010022443
 20
-1009.404112455322
 30
0.0
 11
-2100.862498659862
 21
-1002.492601092741
 31
0.0
  0
LINE
  5
1C8
330
E7
100
AcDbEntity
  8
0
  6
Continuous
 62
     4
370
    13
100
AcDbLine
 10
-2102.877732013478
 20
-1015.821542945341
 30
0.0
 11
-2101.132626535106
 21
-1014.07643746697
 31
0.0
  0
ENDBLK
  5
E9
330
E7
100
AcDbEntity
  8
0
100
AcDbBlockEnd
  0
BLOCK
  5
EB
330
EA
100
AcDbEntity
  8
0
100
AcDbBlockBegin
  2
DC_GROUP_HA19-2119Ｇ_6
 70
     0
 10
0.0
 20
0.0
 30
0.0
  3
DC_GROUP_HA19-2119Ｇ_6
  1

  0
LINE
  5
1C9
330
EA
100
AcDbEntity
  8
0
  6
Continuous
 62
     4
370
    13
100
AcDbLine
 10
-3102.500597895286
 20
-1066.364990467257
 30
0.0
 11
-3068.896168364504
 21
-1032.760560936475
 31
0.0
  0
LINE
  5
1CA
330
EA
100
AcDbEntity
  8
0
  6
Continuous
 62
     4
370
    13
100
AcDbLine
 10
-3107.176565421695
 20
-1059.727249494681
 30
0.0
 11
-3075.533909337079
 21
-1028.084593410066
 31
0.0
  0
LINE
  5
1CB
330
EA
100
AcDbEntity
  8
0
  6
Continuous
 62
     4
370
    13
100
AcDbLine
 10
-3109.434427199227
 20
-1050.671402773229
 30
0.0
 11
-3084.589756058532
 21
-1025.826731632534
 31
0.0
  0
LINE
  5
1CC
330
EA
100
AcDbEntity
  8
0
  6
Continuous
 62
     4
370
    13
100
AcDbLine
 10
-3095.862856922711
 20
-1071.040957993666
 30
0.0
 11
-3064.220200838095
 21
-1039.398301909051
 31
0.0
  0
LINE
  5
1CD
330
EA
100
AcDbEntity
  8
0
  6
Continuous
 62
     4
370
    13
100
AcDbLine
 10
-3086.807010201258
 20
-1073.298819771198
 30
0.0
 11
-3061.962339060563
 21
-1048.454148630504
 31
0.0
  0
ENDBLK
  5
EC
330
EA
100
AcDbEntity
  8
0
100
AcDbBlockEnd
  0
BLOCK
  5
EE
330
ED
100
AcDbEntity
  8
0
100
AcDbBlockBegin
  2
DC_GROUP_HA19-2119Ｇ_7
 70
     0
 10
0.0
 20
0.0
 30
0.0
  3
DC_GROUP_HA19-2119Ｇ_7
  1

  0
LINE
  5
1CE
330
ED
100
AcDbEntity
  8
LAYER0004
  6
Continuous
 62
     4
370
    13
100
AcDbLine
 10
1802.698093857151
 20
-1404.049947375841
 30
0.0
 11
1739.530411405113
 21
-1530.416444203665
 31
0.0
  0
INSERT
  5
1CF
330
ED
100
AcDbEntity
  8
LAYER0004
 62
     4
100
AcDbBlockReference
  2
_Open30
 10
1802.698093857151
 20
-1404.049947375841
 30
0.0
 41
30.00002807615286
 42
29.99989368223643
 50
63.44059530603527
  0
LINE
  5
1D0
330
ED
100
AcDbEntity
  8
LAYER0004
  6
Continuous
 62
     4
370
    13
100
AcDbLine
 10
1739.530411405113
 20
-1530.416444203665
 30
0.0
 11
1635.530411405113
 21
-1530.416444203665
 31
0.0
  0
TEXT
  5
1D1
330
ED
100
AcDbEntity
  8
LAYER0004
 62
     2
100
AcDbText
 10
1645.530411405113
 20
-1520.416444203665
 30
0.0
 40
35.0
  1
エルボ
 41
0.9882352941176471
  7
dcStyle0
 72
     5
 11
1729.530411405113
 21
-1520.416444203665
 31
0.0
100
AcDbText
  0
ENDBLK
  5
EF
330
ED
100
AcDbEntity
  8
0
100
AcDbBlockEnd
  0
BLOCK
  5
F1
330
F0
100
AcDbEntity
  8
0
100
AcDbBlockBegin
  2
DC_GROUP_HA19-2119Ｇ_8
 70
     0
 10
0.0
 20
0.0
 30
0.0
  3
DC_GROUP_HA19-2119Ｇ_8
  1

  0
LINE
  5
1D2
330
F0
100
AcDbEntity
  8
LAYER0004
  6
Continuous
 62
     4
370
    13
100
AcDbLine
 10
1902.187045123388
 20
-1361.190664139526
 30
0.0
 11
1954.286986116036
 21
-1316.493875608124
 31
0.0
  0
INSERT
  5
1D3
330
F0
100
AcDbEntity
  8
LAYER0004
 62
     4
100
AcDbBlockReference
  2
_Open30
 10
1902.187045123388
 20
-1361.190664139526
 30
0.0
 41
30.00002807615286
 42
29.99989368223643
 50
220.6264510488789
  0
LINE
  5
1D4
330
F0
100
AcDbEntity
  8
LAYER0004
  6
Continuous
 62
     4
370
    13
100
AcDbLine
 10
1954.286986116036
 20
-1316.493875608124
 30
0.0
 11
2142.286986116036
 21
-1316.493875608124
 31
0.0
  0
TEXT
  5
1D5
330
F0
100
AcDbEntity
  8
LAYER0004
 62
     2
100
AcDbText
 10
1964.286986116036
 20
-1306.493875608124
 30
0.0
 40
35.0
  1
水抜口バルブ
 41
0.96
  7
dcStyle0
 72
     5
 11
2132.286986116036
 21
-1306.493875608124
 31
0.0
100
AcDbText
  0
ENDBLK
  5
F2
330
F0
100
AcDbEntity
  8
0
100
AcDbBlockEnd
  0
BLOCK
  5
F4
330
F3
100
AcDbEntity
  8
0
100
AcDbBlockBegin
  2
DC_GROUP_HA19-2119Ｇ_9
 70
     0
 10
0.0
 20
0.0
 30
0.0
  3
DC_GROUP_HA19-2119Ｇ_9
  1

  0
LINE
  5
1D6
330
F3
100
AcDbEntity
  8
LAYER0004
  6
Continuous
 62
     4
370
    13
100
AcDbLine
 10
1887.460448787746
 20
309.8978805921178
 30
0.0
 11
2072.237803389381
 21
-20.69477421352212
 31
0.0
  0
INSERT
  5
1D7
330
F3
100
AcDbEntity
  8
LAYER0004
 62
     4
100
AcDbBlockReference
  2
_Open30
 10
1887.460448787746
 20
309.8978805921178
 30
0.0
 41
30.00002807615286
 42
29.99989368223643
 50
119.2020290855167
  0
LINE
  5
1D8
330
F3
100
AcDbEntity
  8
LAYER0004
  6
Continuous
 62
     4
370
    13
100
AcDbLine
 10
2072.237803389381
 20
-20.69477421352212
 30
0.0
 11
2232.237803389381
 21
-20.69477421352212
 31
0.0
  0
TEXT
  5
1D9
330
F3
100
AcDbEntity
  8
LAYER0004
 62
     2
100
AcDbText
 10
2082.237803389381
 20
-10.69477421352212
 30
0.0
 40
35.0
  1
4-φ24
 41
0.8235294117647058
  7
dcStyle0
 72
     5
 11
2222.237803389381
 21
-10.69477421352212
 31
0.0
100
AcDbText
  0
ENDBLK
  5
F5
330
F3
100
AcDbEntity
  8
0
100
AcDbBlockEnd
  0
BLOCK
  5
F7
330
F6
100
AcDbEntity
  8
0
100
AcDbBlockBegin
  2
DC_GROUP_HA19-2119Ｇ_10
 70
     0
 10
0.0
 20
0.0
 30
0.0
  3
DC_GROUP_HA19-2119Ｇ_10
  1

  0
LINE
  5
1DA
330
F6
100
AcDbEntity
  8
LAYER0004
  6
Continuous
 62
     4
370
    13
100
AcDbLine
 10
1311.055747770258
 20
1303.137578534444
 30
0.0
 11
1909.942164544797
 21
1656.438502395921
 31
0.0
  0
INSERT
  5
1DB
330
F6
100
AcDbEntity
  8
LAYER0004
 62
     4
100
AcDbBlockReference
  2
_Open30
 10
1311.055747770258
 20
1303.137578534444
 30
0.0
 41
30.00002807615286
 42
29.99989368223643
 50
210.5376197441072
  0
LINE
  5
1DC
330
F6
100
AcDbEntity
  8
LAYER0004
  6
Continuous
 62
     4
370
    13
100
AcDbLine
 10
1909.942164544797
 20
1656.438502395921
 30
0.0
 11
2237.942164544797
 21
1656.438502395921
 31
0.0
  0
TEXT
  5
1DD
330
F6
100
AcDbEntity
  8
LAYER0004
 62
     2
100
AcDbText
 10
1919.942164544797
 20
1666.438502395921
 30
0.0
 40
35.0
  1
4-M20裏ナット溶接
 41
0.8595348837209301
  7
dcStyle0
 72
     5
 11
2227.942164544797
 21
1666.438502395921
 31
0.0
100
AcDbText
  0
ENDBLK
  5
F8
330
F6
100
AcDbEntity
  8
0
100
AcDbBlockEnd
  0
BLOCK
  5
FD
330
FC
100
AcDbEntity
  8
0
100
AcDbBlockBegin
  2
_Open30
 70
     0
 10
0.0
 20
0.0
 30
0.0
  3
_Open30
  1

  0
LINE
  5
FF
330
FC
100
AcDbEntity
  8
0
  6
ByBlock
 62
     0
370
    -2
100
AcDbLine
 10
-1.0
 20
0.267949
 30
0.0
 11
0.0
 21
0.0
 31
0.0
  0
LINE
  5
100
330
FC
100
AcDbEntity
  8
0
  6
ByBlock
 62
     0
370
    -2
100
AcDbLine
 10
0.0
 20
0.0
 30
0.0
 11
-1.0
 21
-0.267949
 31
0.0
  0
LINE
  5
101
330
FC
100
AcDbEntity
  8
0
  6
ByBlock
 62
     0
370
    -2
100
AcDbLine
 10
0.0
 20
0.0
 30
0.0
 11
-1.0
 21
0.0
 31
0.0
  0
ENDBLK
  5
FE
330
FC
100
AcDbEntity
  8
0
100
AcDbBlockEnd
  0
ENDSEC
  0
SECTION
  2
ENTITIES
  0
LINE
  5
1DE
330
1F
100
AcDbEntity
  8
0
  6
Continuous
 62
     2
370
    13
100
AcDbLine
 10
-3151.843376452982
 20
-340.2886795271523
 30
0.0
 11
-1190.368394423783
 21
-340.2886795271523
 31
0.0
  0
LINE
  5
1DF
330
1F
100
AcDbEntity
  8
0
  6
Continuous
 62
     2
370
    13
100
AcDbLine
 10
-2648.567426915228
 20
-815.0639204389767
 30
0.0
 11
-2648.567426915228
 21
1548.259483899129
 31
0.0
  0
LINE
  5
1E0
330
1F
100
AcDbEntity
  8
0
  6
Continuous
 62
     2
370
    13
100
AcDbLine
 10
-3151.843376452982
 20
1548.259483899129
 30
0.0
 11
-1190.368394423783
 21
1548.259483899127
 31
0.0
  0
LINE
  5
1E1
330
1F
100
AcDbEntity
  8
0
  6
Continuous
 62
     2
370
    13
100
AcDbLine
 10
-3151.843376452982
 20
1352.291653664361
 30
0.0
 11
-1190.368394423783
 21
1352.291653664361
 31
0.0
  0
LINE
  5
1E2
330
1F
100
AcDbEntity
  8
0
  6
Continuous
 62
     2
370
    13
100
AcDbLine
 10
-3151.843376452982
 20
893.4219944783421
 30
0.0
 11
-1190.368394423783
 21
893.4219944783421
 31
0.0
  0
LINE
  5
1E3
330
1F
100
AcDbEntity
  8
0
  6
Continuous
 62
     2
370
    13
100
AcDbLine
 10
-3151.843376452982
 20
588.941738518414
 30
0.0
 11
-1190.368394423783
 21
588.941738518414
 31
0.0
  0
LINE
  5
1E4
330
1F
100
AcDbEntity
  8
0
  6
Continuous
 62
     2
370
    13
100
AcDbLine
 10
-3151.843376452982
 20
399.2367697944923
 30
0.0
 11
-1190.368394423783
 21
399.2367697944923
 31
0.0
  0
LINE
  5
1E5
330
1F
100
AcDbEntity
  8
0
  6
Continuous
 62
     2
370
    13
100
AcDbLine
 10
-3151.843376452982
 20
-815.0639204389767
 30
0.0
 11
-1190.368394423783
 21
-815.0639204389767
 31
0.0
  0
LINE
  5
1E6
330
1F
100
AcDbEntity
  8
0
  6
Continuous
 62
     2
370
    13
100
AcDbLine
 10
-3488.02901417142
 20
-1703.390384654693
 30
0.0
 11
-3488.02901417142
 21
2648.609615345307
 31
0.0
  0
LINE
  5
1E7
330
1F
100
AcDbEntity
  8
0
  6
Continuous
 62
     2
370
    13
100
AcDbLine
 10
2655.97098582858
 20
-1703.390384654693
 30
0.0
 11
-3488.02901417142
 21
-1703.390384654693
 31
0.0
  0
LINE
  5
1E8
330
1F
100
AcDbEntity
  8
0
  6
Continuous
 62
     2
370
    13
100
AcDbLine
 10
2655.97098582858
 20
2648.609615345307
 30
0.0
 11
2655.97098582858
 21
-1703.390384654693
 31
0.0
  0
LINE
  5
1E9
330
1F
100
AcDbEntity
  8
0
  6
Continuous
 62
     2
370
    13
100
AcDbLine
 10
-3488.02901417142
 20
2648.609615345307
 30
0.0
 11
2655.97098582858
 21
2648.609615345307
 31
0.0
  0
LINE
  5
1EA
330
1F
100
AcDbEntity
  8
0
  6
Continuous
 62
     2
370
    13
100
AcDbLine
 10
-3151.843376452982
 20
-815.0639204389767
 30
0.0
 11
-3151.843376452982
 21
1548.259483899129
 31
0.0
  0
LINE
  5
1EB
330
1F
100
AcDbEntity
  8
0
  6
Continuous
 62
     2
370
    13
100
AcDbLine
 10
-1190.368394423783
 20
1548.259483899127
 30
0.0
 11
-1190.368394423783
 21
-814.5233280367572
 31
0.0
  0
LINE
  5
1EC
330
1F
100
AcDbEntity
  8
0
  6
Continuous
 62
     2
370
    13
100
AcDbLine
 10
-2995.473316903173
 20
893.4219944783421
 30
0.0
 11
-2995.473316903173
 21
588.941738518414
 31
0.0
  0
LINE
  5
1ED
330
1F
100
AcDbEntity
  8
0
  6
Continuous
 62
     2
370
    13
100
AcDbLine
 10
-3026.293583126127
 20
-1049.562775701866
 30
0.0
 11
-3050.05550312525
 21
-990.1579757018245
 31
0.0
  0
LINE
  5
1EE
330
1F
100
AcDbEntity
  8
0
  6
Continuous
 62
     2
370
    13
100
AcDbLine
 10
-3026.293583126127
 20
-1049.562775701866
 30
0.0
 11
-3050.05550312525
 21
-1108.967575701908
 31
0.0
  0
LINE
  5
1EF
330
1F
100
AcDbEntity
  8
0
  6
Continuous
 62
     2
370
    13
100
AcDbLine
 10
-3121.341263128577
 20
-990.1579757018245
 30
0.0
 11
-3145.103183127701
 21
-1049.562775701866
 31
0.0
  0
LINE
  5
1F0
330
1F
100
AcDbEntity
  8
0
  6
Continuous
 62
     2
370
    13
100
AcDbLine
 10
-3121.341263128577
 20
-1108.967575701908
 30
0.0
 11
-3145.103183127701
 21
-1049.562775701866
 31
0.0
  0
LINE
  5
1F1
330
1F
100
AcDbEntity
  8
0
  6
Continuous
 62
     2
370
    13
100
AcDbLine
 10
-3050.05550312525
 20
-990.1579757018245
 30
0.0
 11
-3066.655599064886
 21
-1031.658215553151
 31
0.0
  0
LINE
  5
1F2
330
1F
100
AcDbEntity
  8
0
  6
Continuous
 62
     2
370
    13
100
AcDbLine
 10
-3050.05550312525
 20
-1108.967575701908
 30
0.0
 11
-3066.655599064886
 21
-1067.467335852818
 31
0.0
  0
LINE
  5
1F3
330
1F
100
AcDbEntity
  8
0
  6
Continuous
 62
     2
370
    13
100
AcDbLine
 10
-3104.741167182981
 20
-1067.467335852818
 30
0.0
 11
-3121.341263128577
 21
-1108.967575701908
 31
0.0
  0
LINE
  5
1F4
330
1F
100
AcDbEntity
  8
0
  6
Continuous
 62
     2
370
    13
100
AcDbLine
 10
-3104.741167182981
 20
-1031.658215553151
 30
0.0
 11
-3121.341263128577
 21
-990.1579757018245
 31
0.0
  0
LINE
  5
1F5
330
1F
100
AcDbEntity
  8
0
  6
Continuous
 62
     2
370
    13
100
AcDbLine
 10
-2099.240217621386
 20
-1002.492601092741
 30
0.0
 11
-2106.644901729881
 21
-1002.492601092741
 31
0.0
  0
LINE
  5
1F6
330
1F
100
AcDbEntity
  8
0
  6
Continuous
 62
     2
370
    13
100
AcDbLine
 10
-2101.417718024312
 20
-1015.821542945341
 30
0.0
 11
-2099.240217621386
 21
-1002.492601092741
 31
0.0
  0
LINE
  5
1F7
330
1F
100
AcDbEntity
  8
0
  6
Continuous
 62
     2
370
    13
100
AcDbLine
 10
-2108.822402132808
 20
-1015.821542945341
 30
0.0
 11
-2101.417718024312
 21
-1015.821542945341
 31
0.0
  0
LINE
  5
1F8
330
1F
100
AcDbEntity
  8
0
  6
Continuous
 62
     2
370
    13
100
AcDbLine
 10
-2106.644901729881
 20
-1002.492601092741
 30
0.0
 11
-2108.822402132808
 21
-1015.821542945341
 31
0.0
  0
LINE
  5
1F9
330
1F
100
AcDbEntity
  8
0
  6
Continuous
 62
     2
370
    13
100
AcDbLine
 10
-2114.049585832416
 20
-1002.492601092741
 30
0.0
 11
-2121.454269940912
 21
-1002.492601092741
 31
0.0
  0
LINE
  5
1FA
330
1F
100
AcDbEntity
  8
0
  6
Continuous
 62
     2
370
    13
100
AcDbLine
 10
-2116.227086235345
 20
-1015.821542945341
 30
0.0
 11
-2114.049585832416
 21
-1002.492601092741
 31
0.0
  0
LINE
  5
1FB
330
1F
100
AcDbEntity
  8
0
  6
Continuous
 62
     2
370
    13
100
AcDbLine
 10
-2123.631770337879
 20
-1015.821542945341
 30
0.0
 11
-2116.227086235345
 21
-1015.821542945341
 31
0.0
  0
LINE
  5
1FC
330
1F
100
AcDbEntity
  8
0
  6
Continuous
 62
     2
370
    13
100
AcDbLine
 10
-2121.454269940912
 20
-1002.492601092741
 30
0.0
 11
-2123.631770337879
 21
-1015.821542945341
 31
0.0
  0
LINE
  5
1FD
330
1F
100
AcDbEntity
  8
0
  6
Continuous
 62
     2
370
    13
100
AcDbLine
 10
-1948.862397171318
 20
-1021.187802721397
 30
0.0
 11
-1919.931189007818
 21
-1021.187802721397
 31
0.0
  0
LINE
  5
1FE
330
1F
100
AcDbEntity
  8
0
  6
Continuous
 62
     2
370
    13
100
AcDbLine
 10
-1967.871715457498
 20
-1021.187802721397
 30
0.0
 11
-1981.560854620992
 21
-1096.374362524436
 31
0.0
  0
LINE
  5
1FF
330
1F
100
AcDbEntity
  8
0
  6
Continuous
 62
     2
370
    13
100
AcDbLine
 10
-1948.862397171318
 20
-1021.187802721397
 30
0.0
 11
-1962.551536334812
 21
-1096.374362524436
 31
0.0
  0
LINE
  5
200
330
1F
100
AcDbEntity
  8
0
  6
Continuous
 62
     2
370
    13
100
AcDbLine
 10
-1946.799126507103
 20
-1009.85544491841
 30
0.0
 11
-1894.40309943682
 21
-1009.85544491841
 31
0.0
  0
LINE
  5
201
330
1F
100
AcDbEntity
  8
0
  6
Continuous
 62
     2
370
    13
100
AcDbLine
 10
-1894.40309943682
 20
-1009.85544491841
 30
0.0
 11
-1903.036034436285
 21
-1037.519150631712
 31
0.0
  0
LINE
  5
202
330
1F
100
AcDbEntity
  8
0
  6
Continuous
 62
     2
370
    13
100
AcDbLine
 10
-2059.393199486791
 20
-1044.557196414308
 30
0.0
 11
-2051.65214252001
 21
-1044.557196414308
 31
0.0
  0
LINE
  5
203
330
1F
100
AcDbEntity
  8
0
  6
Continuous
 62
     2
370
    13
100
AcDbLine
 10
-1999.406017805397
 20
-992.8628053872148
 30
0.0
 11
-2031.01214940077
 21
-1034.085842329101
 31
0.0
  0
LINE
  5
204
330
1F
100
AcDbEntity
  8
0
  6
Continuous
 62
     2
370
    13
100
AcDbLine
 10
-2158.856099630653
 20
-1033.865354486392
 30
0.0
 11
-2153.873946232854
 21
-1011.627362052933
 31
0.0
  0
LINE
  5
205
330
1F
100
AcDbEntity
  8
0
  6
Continuous
 62
     2
370
    13
100
AcDbLine
 10
-2194.64935283786
 20
-1033.865354486392
 30
0.0
 11
-2158.856099630653
 21
-1033.865354486392
 31
0.0
  0
LINE
  5
206
330
1F
100
AcDbEntity
  8
0
  6
Continuous
 62
     2
370
    13
100
AcDbLine
 10
-2160.916900200902
 20
-1043.063800173836
 30
0.0
 11
-2164.109817625343
 21
-1057.315483690636
 31
0.0
  0
LINE
  5
207
330
1F
100
AcDbEntity
  8
0
  6
Continuous
 62
     2
370
    13
100
AcDbLine
 10
-2196.402251715719
 20
-1043.063800173836
 30
0.0
 11
-2160.916900200902
 21
-1043.063800173836
 31
0.0
  0
LINE
  5
208
330
1F
100
AcDbEntity
  8
0
  6
Continuous
 62
     2
370
    13
100
AcDbLine
 10
-2194.64935283786
 20
-1033.865354486392
 30
0.0
 11
-2196.402251715719
 21
-1043.063800173836
 31
0.0
  0
LINE
  5
209
330
1F
100
AcDbEntity
  8
0
  6
Continuous
 62
     2
370
    13
100
AcDbLine
 10
-2137.978679175436
 20
-1002.492601092741
 30
0.0
 11
-2152.001846165716
 21
-1066.450244649337
 31
0.0
  0
LINE
  5
20A
330
1F
100
AcDbEntity
  8
0
  6
Continuous
 62
     2
370
    13
100
AcDbLine
 10
-2191.772609962283
 20
-1011.627362052933
 30
0.0
 11
-2199.710259230195
 21
-1031.554902132437
 31
0.0
  0
LINE
  5
20B
330
1F
100
AcDbEntity
  8
0
  6
Continuous
 62
     2
370
    13
100
AcDbLine
 10
-2201.899876589834
 20
-1002.492601092741
 30
0.0
 11
-2209.837525857745
 21
-1022.420141170756
 31
0.0
  0
LINE
  5
20C
330
1F
100
AcDbEntity
  8
0
  6
Continuous
 62
     2
370
    13
100
AcDbLine
 10
-2229.878400291263
 20
-1043.063800173836
 30
0.0
 11
-2216.682866455375
 21
-1043.063800173836
 31
0.0
  0
LINE
  5
20D
330
1F
100
AcDbEntity
  8
0
  6
Continuous
 62
     2
370
    13
100
AcDbLine
 10
-2229.878400291263
 20
-1033.929039214389
 30
0.0
 11
-2226.810133082925
 21
-1033.929039214389
 31
0.0
  0
LINE
  5
20E
330
1F
100
AcDbEntity
  8
0
  6
Continuous
 62
     2
370
    13
100
AcDbLine
 10
-2229.878400291263
 20
-1033.929039214389
 30
0.0
 11
-2229.878400291263
 21
-1043.063800173836
 31
0.0
  0
LINE
  5
20F
330
1F
100
AcDbEntity
  8
0
  6
Continuous
 62
     2
370
    13
100
AcDbLine
 10
-2443.742428333818
 20
-1028.772509647743
 30
0.0
 11
-2446.767919422447
 21
-1055.41363951473
 31
0.0
  0
LINE
  5
210
330
1F
100
AcDbEntity
  8
0
  6
Continuous
 62
     2
370
    13
100
AcDbLine
 10
-2427.570617390929
 20
-1028.772509647743
 30
0.0
 11
-2415.684393860161
 21
-1028.772509647743
 31
0.0
  0
LINE
  5
211
330
1F
100
AcDbEntity
  8
0
  6
Continuous
 62
     2
370
    13
100
AcDbLine
 10
-2427.570617390929
 20
-1028.772509647743
 30
0.0
 11
-2431.633494587003
 21
-1064.548400474922
 31
0.0
  0
LINE
  5
212
330
1F
100
AcDbEntity
  8
0
  6
Continuous
 62
     2
370
    13
100
AcDbLine
 10
-2426.533231289445
 20
-1019.637748689042
 30
0.0
 11
-2415.684393860161
 21
-1019.637748689042
 31
0.0
  0
LINE
  5
213
330
1F
100
AcDbEntity
  8
0
  6
Continuous
 62
     2
370
    13
100
AcDbLine
 10
-2470.734290863335
 20
-1028.772509647743
 30
0.0
 11
-2473.474234504758
 21
-1052.876341111796
 31
0.0
  0
LINE
  5
214
330
1F
100
AcDbEntity
  8
0
  6
Continuous
 62
     2
370
    13
100
AcDbLine
 10
-2470.734290863335
 20
-1028.772509647743
 30
0.0
 11
-2443.742428333818
 21
-1028.772509647743
 31
0.0
  0
LINE
  5
215
330
1F
100
AcDbEntity
  8
0
  6
Continuous
 62
     2
370
    13
100
AcDbLine
 10
-2486.902228332817
 20
-1028.772509647743
 30
0.0
 11
-2489.639571965993
 21
-1052.876341111796
 31
0.0
  0
LINE
  5
216
330
1F
100
AcDbEntity
  8
0
  6
Continuous
 62
     2
370
    13
100
AcDbLine
 10
-2469.695919419586
 20
-1019.637748689042
 30
0.0
 11
-2442.705042226373
 21
-1019.637748689042
 31
0.0
  0
LINE
  5
217
330
1F
100
AcDbEntity
  8
0
  6
Continuous
 62
     2
370
    13
100
AcDbLine
 10
-2503.920685530959
 20
-1028.772509647743
 30
0.0
 11
-2486.902228332817
 21
-1028.772509647743
 31
0.0
  0
LINE
  5
218
330
1F
100
AcDbEntity
  8
0
  6
Continuous
 62
     2
370
    13
100
AcDbLine
 10
-1943.705294210969
 20
-992.8628053872148
 30
0.0
 11
-1946.799126507103
 21
-1009.85544491841
 31
0.0
  0
LINE
  5
219
330
1F
100
AcDbEntity
  8
0
  6
Continuous
 62
     2
370
    13
100
AcDbLine
 10
-1962.714612491189
 20
-992.8628053872148
 30
0.0
 11
-1965.808444793283
 21
-1009.85544491841
 31
0.0
  0
LINE
  5
21A
330
1F
100
AcDbEntity
  8
0
  6
Continuous
 62
     2
370
    13
100
AcDbLine
 10
-1981.560854620992
 20
-1096.374362524436
 30
0.0
 11
-1962.551536334812
 21
-1096.374362524436
 31
0.0
  0
LINE
  5
21B
330
1F
100
AcDbEntity
  8
0
  6
Continuous
 62
     2
370
    13
100
AcDbLine
 10
-1962.714612491189
 20
-992.8628053872148
 30
0.0
 11
-1943.705294210969
 21
-992.8628053872148
 31
0.0
  0
LINE
  5
21C
330
1F
100
AcDbEntity
  8
0
  6
Continuous
 62
     2
370
    13
100
AcDbLine
 10
-1938.237910254061
 20
-1045.637184115336
 30
0.0
 11
-1938.237910254061
 21
-1058.042442532466
 31
0.0
  0
LINE
  5
21D
330
1F
100
AcDbEntity
  8
0
  6
Continuous
 62
     2
370
    13
100
AcDbLine
 10
-1938.237910254061
 20
-1058.042442532466
 30
0.0
 11
-1930.940099186956
 21
-1058.042442532466
 31
0.0
  0
LINE
  5
21E
330
1F
100
AcDbEntity
  8
0
  6
Continuous
 62
     2
370
    13
100
AcDbLine
 10
-1919.931189007818
 20
-1021.187802721397
 30
0.0
 11
-1924.265585835039
 21
-1035.309972619103
 31
0.0
  0
LINE
  5
21F
330
1F
100
AcDbEntity
  8
0
  6
Continuous
 62
     2
370
    13
100
AcDbLine
 10
-1983.367489297448
 20
-1021.187802721397
 30
0.0
 11
-1967.871715457498
 21
-1021.187802721397
 31
0.0
  0
LINE
  5
220
330
1F
100
AcDbEntity
  8
0
  6
Continuous
 62
     2
370
    13
100
AcDbLine
 10
-1983.367489297448
 20
-1009.85544491841
 30
0.0
 11
-1983.367489297448
 21
-1021.187802721397
 31
0.0
  0
LINE
  5
221
330
1F
100
AcDbEntity
  8
0
  6
Continuous
 62
     2
370
    13
100
AcDbLine
 10
-1983.367489297448
 20
-1009.85544491841
 30
0.0
 11
-1965.808444793283
 21
-1009.85544491841
 31
0.0
  0
LINE
  5
222
330
1F
100
AcDbEntity
  8
0
  6
Continuous
 62
     2
370
    13
100
AcDbLine
 10
-2076.187774391235
 20
-1096.374362524436
 30
0.0
 11
-2059.393199486791
 21
-1096.374362524436
 31
0.0
  0
LINE
  5
223
330
1F
100
AcDbEntity
  8
0
  6
Continuous
 62
     2
370
    13
100
AcDbLine
 10
-2076.187774391235
 20
-1044.557196414308
 30
0.0
 11
-2076.187774391235
 21
-1096.374362524436
 31
0.0
  0
LINE
  5
224
330
1F
100
AcDbEntity
  8
0
  6
Continuous
 62
     2
370
    13
100
AcDbLine
 10
-2059.393199486791
 20
-1044.557196414308
 30
0.0
 11
-2059.393199486791
 21
-1096.374362524436
 31
0.0
  0
LINE
  5
225
330
1F
100
AcDbEntity
  8
0
  6
Continuous
 62
     2
370
    13
100
AcDbLine
 10
-2095.787833685934
 20
-1044.557196414308
 30
0.0
 11
-2076.187774391235
 21
-1044.557196414308
 31
0.0
  0
LINE
  5
226
330
1F
100
AcDbEntity
  8
0
  6
Continuous
 62
     2
370
    13
100
AcDbLine
 10
-2095.787833685934
 20
-1033.421362660663
 30
0.0
 11
-2095.787833685934
 21
-1044.557196414308
 31
0.0
  0
LINE
  5
227
330
1F
100
AcDbEntity
  8
0
  6
Continuous
 62
     2
370
    13
100
AcDbLine
 10
-2063.057148493587
 20
-1033.421362660663
 30
0.0
 11
-2095.787833685934
 21
-1033.421362660663
 31
0.0
  0
LINE
  5
228
330
1F
100
AcDbEntity
  8
0
  6
Continuous
 62
     2
370
    13
100
AcDbLine
 10
-2019.214926011621
 20
-992.8628053872148
 30
0.0
 11
-2042.799641771375
 21
-1023.4591934046
 31
0.0
  0
LINE
  5
229
330
1F
100
AcDbEntity
  8
0
  6
Continuous
 62
     2
370
    13
100
AcDbLine
 10
-2019.214926011621
 20
-992.8628053872148
 30
0.0
 11
-1999.406017805397
 21
-992.8628053872148
 31
0.0
  0
LINE
  5
22A
330
1F
100
AcDbEntity
  8
0
  6
Continuous
 62
     2
370
    13
100
AcDbLine
 10
-2158.463481057941
 20
-1002.492601092741
 30
0.0
 11
-2137.978679175436
 21
-1002.492601092741
 31
0.0
  0
LINE
  5
22B
330
1F
100
AcDbEntity
  8
0
  6
Continuous
 62
     2
370
    13
100
AcDbLine
 10
-2231.387923903524
 20
-1078.104840604799
 30
0.0
 11
-2231.387923903524
 21
-1087.239601564245
 31
0.0
  0
LINE
  5
22C
330
1F
100
AcDbEntity
  8
0
  6
Continuous
 62
     2
370
    13
100
AcDbLine
 10
-2231.387923903524
 20
-1087.239601564245
 30
0.0
 11
-2177.127035762131
 21
-1087.239601564245
 31
0.0
  0
LINE
  5
22D
330
1F
100
AcDbEntity
  8
0
  6
Continuous
 62
     2
370
    13
100
AcDbLine
 10
-2231.387923903524
 20
-1078.104840604799
 30
0.0
 11
-2189.235007221758
 21
-1078.104840604799
 31
0.0
  0
LINE
  5
22E
330
1F
100
AcDbEntity
  8
0
  6
Continuous
 62
     2
370
    13
100
AcDbLine
 10
-2191.772609962283
 20
-1011.627362052933
 30
0.0
 11
-2153.873946232854
 21
-1011.627362052933
 31
0.0
  0
LINE
  5
22F
330
1F
100
AcDbEntity
  8
0
  6
Continuous
 62
     2
370
    13
100
AcDbLine
 10
-2201.899876589834
 20
-1002.492601092741
 30
0.0
 11
-2158.463481057941
 21
-1002.492601092741
 31
0.0
  0
LINE
  5
230
330
1F
100
AcDbEntity
  8
0
  6
Continuous
 62
     2
370
    13
100
AcDbLine
 10
-2266.853350628675
 20
-1006.916871774034
 30
0.0
 11
-2281.015031124412
 21
-1067.099022947089
 31
0.0
  0
LINE
  5
231
330
1F
100
AcDbEntity
  8
0
  6
Continuous
 62
     2
370
    13
100
AcDbLine
 10
-2276.201743663608
 20
-1006.916871774034
 30
0.0
 11
-2285.572307885944
 21
-1045.074189943658
 31
0.0
  0
LINE
  5
232
330
1F
100
AcDbEntity
  8
0
  6
Continuous
 62
     2
370
    13
100
AcDbLine
 10
-2276.201743663608
 20
-1006.916871774034
 30
0.0
 11
-2266.853350628675
 21
-1006.916871774034
 31
0.0
  0
LINE
  5
233
330
1F
100
AcDbEntity
  8
0
  6
Continuous
 62
     2
370
    13
100
AcDbLine
 10
-2380.688781882583
 20
-1087.239601564245
 30
0.0
 11
-2306.007861537992
 21
-1087.239601564245
 31
0.0
  0
LINE
  5
234
330
1F
100
AcDbEntity
  8
0
  6
Continuous
 62
     2
370
    13
100
AcDbLine
 10
-2378.678626478971
 20
-1068.091994079785
 30
0.0
 11
-2314.135542644322
 21
-1068.091994079785
 31
0.0
  0
LINE
  5
235
330
1F
100
AcDbEntity
  8
0
  6
Continuous
 62
     2
370
    13
100
AcDbLine
 10
-2378.678626478971
 20
-1068.091994079785
 30
0.0
 11
-2380.688781882583
 21
-1087.239601564245
 31
0.0
  0
LINE
  5
236
330
1F
100
AcDbEntity
  8
0
  6
Continuous
 62
     2
370
    13
100
AcDbLine
 10
-2366.115155209362
 20
-1014.541684956685
 30
0.0
 11
-2305.868249131499
 21
-1014.541684956685
 31
0.0
  0
LINE
  5
237
330
1F
100
AcDbEntity
  8
0
  6
Continuous
 62
     2
370
    13
100
AcDbLine
 10
-2305.868249131499
 20
-1002.492601092741
 30
0.0
 11
-2305.868249131499
 21
-1014.541684956685
 31
0.0
  0
LINE
  5
238
330
1F
100
AcDbEntity
  8
0
  6
Continuous
 62
     2
370
    13
100
AcDbLine
 10
-2366.115155209362
 20
-1002.492601092741
 30
0.0
 11
-2305.868249131499
 21
-1002.492601092741
 31
0.0
  0
LINE
  5
239
330
1F
100
AcDbEntity
  8
0
  6
Continuous
 62
     2
370
    13
100
AcDbLine
 10
-2366.115155209362
 20
-1002.492601092741
 30
0.0
 11
-2366.115155209362
 21
-1014.541684956685
 31
0.0
  0
LINE
  5
23A
330
1F
100
AcDbEntity
  8
0
  6
Continuous
 62
     2
370
    13
100
AcDbLine
 10
-2415.684393860161
 20
-1028.772509647743
 30
0.0
 11
-2415.684393860161
 21
-1019.637748689042
 31
0.0
  0
LINE
  5
23B
330
1F
100
AcDbEntity
  8
0
  6
Continuous
 62
     2
370
    13
100
AcDbLine
 10
-2505.994456954061
 20
-1078.104840604799
 30
0.0
 11
-2505.994456954061
 21
-1087.239601564245
 31
0.0
  0
LINE
  5
23C
330
1F
100
AcDbEntity
  8
0
  6
Continuous
 62
     2
370
    13
100
AcDbLine
 10
-2439.664354665338
 20
-1002.492601092741
 30
0.0
 11
-2442.705042226373
 21
-1019.637748689042
 31
0.0
  0
LINE
  5
23D
330
1F
100
AcDbEntity
  8
0
  6
Continuous
 62
     2
370
    13
100
AcDbLine
 10
-2423.49254372245
 20
-1002.492601092741
 30
0.0
 11
-2426.533231289445
 21
-1019.637748689042
 31
0.0
  0
LINE
  5
23E
330
1F
100
AcDbEntity
  8
0
  6
Continuous
 62
     2
370
    13
100
AcDbLine
 10
-2423.49254372245
 20
-1002.492601092741
 30
0.0
 11
-2439.664354665338
 21
-1002.492601092741
 31
0.0
  0
LINE
  5
23F
330
1F
100
AcDbEntity
  8
0
  6
Continuous
 62
     2
370
    13
100
AcDbLine
 10
-2505.994456954061
 20
-1087.239601564245
 30
0.0
 11
-2457.047469110547
 21
-1087.239601564245
 31
0.0
  0
LINE
  5
240
330
1F
100
AcDbEntity
  8
0
  6
Continuous
 62
     2
370
    13
100
AcDbLine
 10
-2505.994456954061
 20
-1078.104840604799
 30
0.0
 11
-2472.181893945991
 21
-1078.104840604799
 31
0.0
  0
LINE
  5
241
330
1F
100
AcDbEntity
  8
0
  6
Continuous
 62
     2
370
    13
100
AcDbLine
 10
-2466.652343727409
 20
-1002.492601092741
 30
0.0
 11
-2469.695919419586
 21
-1019.637748689042
 31
0.0
  0
LINE
  5
242
330
1F
100
AcDbEntity
  8
0
  6
Continuous
 62
     2
370
    13
100
AcDbLine
 10
-2482.824154658376
 20
-1002.492601092741
 30
0.0
 11
-2466.652343727409
 21
-1002.492601092741
 31
0.0
  0
LINE
  5
243
330
1F
100
AcDbEntity
  8
0
  6
Continuous
 62
     2
370
    13
100
AcDbLine
 10
-2489.639571965993
 20
-1052.876341111796
 30
0.0
 11
-2473.474234504758
 21
-1052.876341111796
 31
0.0
  0
LINE
  5
244
330
1F
100
AcDbEntity
  8
0
  6
Continuous
 62
     2
370
    13
100
AcDbLine
 10
-2482.824154658376
 20
-1002.492601092741
 30
0.0
 11
-2485.864842225372
 21
-1019.637748689042
 31
0.0
  0
LINE
  5
245
330
1F
100
AcDbEntity
  8
0
  6
Continuous
 62
     2
370
    13
100
AcDbLine
 10
-2503.920685530959
 20
-1019.637748689042
 30
0.0
 11
-2503.920685530959
 21
-1028.772509647743
 31
0.0
  0
LINE
  5
246
330
1F
100
AcDbEntity
  8
0
  6
Continuous
 62
     2
370
    13
100
AcDbLine
 10
-2503.920685530959
 20
-1019.637748689042
 30
0.0
 11
-2485.864842225372
 21
-1019.637748689042
 31
0.0
  0
LINE
  5
247
330
1F
100
AcDbEntity
  8
0
  6
Continuous
 62
     2
370
    13
100
AcDbLine
 10
-3151.843376452982
 20
-6.797619525523711
 30
0.0
 11
-1190.368394423783
 21
-6.797619525523711
 31
0.0
  0
ARC
  5
248
330
1F
100
AcDbEntity
  8
0
  6
Continuous
 62
     2
370
    13
100
AcDbCircle
 10
-3085.698383129895
 20
-1049.562775701866
 30
0.0
 40
26.13811200269701
100
AcDbArc
 50
43.23546701994466
 51
136.7645329621512
  0
ARC
  5
249
330
1F
100
AcDbEntity
  8
0
  6
Continuous
 62
     2
370
    13
100
AcDbCircle
 10
-3085.698383129895
 20
-1049.562775701866
 30
0.0
 40
26.13811199554254
100
AcDbArc
 50
223.2354670414219
 51
316.7645329764823
  0
CIRCLE
  5
24A
330
1F
100
AcDbEntity
  8
0
  6
Continuous
 62
     2
370
    13
100
AcDbCircle
 10
-3085.698383129895
 20
-1049.562775701866
 30
0.0
 40
23.76191999912117
  0
ARC
  5
24B
330
1F
100
AcDbEntity
  8
0
  6
Continuous
 62
     2
370
    13
100
AcDbCircle
 10
-1930.940099186956
 20
-1028.81120746045
 30
0.0
 40
29.23123507201599
100
AcDbArc
 50
270.0
 51
342.6685699110374
  0
ARC
  5
24C
330
1F
100
AcDbEntity
  8
0
  6
Continuous
 62
     2
370
    13
100
AcDbCircle
 10
-2457.047469110547
 20
-1061.662270876602
 30
0.0
 40
25.57733068764319
100
AcDbArc
 50
270.0
 51
353.5209817853935
  0
ARC
  5
24D
330
1F
100
AcDbEntity
  8
0
  6
Continuous
 62
     2
370
    13
100
AcDbCircle
 10
-2314.135542644322
 20
-1038.860759006277
 30
0.0
 40
29.23123507350756
100
AcDbArc
 50
270.0
 51
347.7275034287803
  0
ARC
  5
24E
330
1F
100
AcDbEntity
  8
0
  6
Continuous
 62
     2
370
    13
100
AcDbCircle
 10
-2177.127035762131
 20
-1061.662270876602
 30
0.0
 40
25.57733068764319
100
AcDbArc
 50
270.0
 51
349.210809517712
  0
ARC
  5
24F
330
1F
100
AcDbEntity
  8
0
  6
Continuous
 62
     2
370
    13
100
AcDbCircle
 10
-2189.235007221758
 20
-1052.527509916412
 30
0.0
 40
25.57733068838716
100
AcDbArc
 50
270.0
 51
349.2108095144338
  0
ARC
  5
250
330
1F
100
AcDbEntity
  8
0
  6
Continuous
 62
     2
370
    13
100
AcDbCircle
 10
-2216.682866455375
 20
-1024.794278252708
 30
0.0
 40
18.26952192112804
100
AcDbArc
 50
270.0
 51
338.2813419529058
  0
ARC
  5
251
330
1F
100
AcDbEntity
  8
0
  6
Continuous
 62
     2
370
    13
100
AcDbCircle
 10
-2226.810133082925
 20
-1015.659517292515
 30
0.0
 40
18.26952192187382
100
AcDbArc
 50
270.0
 51
338.2813419572452
  0
ARC
  5
252
330
1F
100
AcDbEntity
  8
0
  6
Continuous
 62
     2
370
    13
100
AcDbCircle
 10
-2306.007861537992
 20
-1061.662270876602
 30
0.0
 40
25.57733068764319
100
AcDbArc
 50
270.0
 51
347.7275034281709
  0
ARC
  5
253
330
1F
100
AcDbEntity
  8
0
  6
Continuous
 62
     2
370
    13
100
AcDbCircle
 10
-2472.181893945991
 20
-1052.527509916412
 30
0.0
 40
25.57733068838716
100
AcDbArc
 50
270.0
 51
353.5209817853967
  0
ARC
  5
254
330
1F
100
AcDbEntity
  8
0
  6
Continuous
 62
     2
370
    13
100
AcDbCircle
 10
-1938.237910254061
 20
-1031.021566579328
 30
0.0
 40
14.615617536008
100
AcDbArc
 50
270.0
 51
342.9376269367021
  0
ARC
  5
255
330
1F
100
AcDbEntity
  8
0
  6
Continuous
 62
     2
370
    13
100
AcDbCircle
 10
-2051.65214252001
 20
-1018.97986572741
 30
0.0
 40
25.57733068689777
100
AcDbArc
 50
270.0
 51
323.8003882588918
  0
ARC
  5
256
330
1F
100
AcDbEntity
  8
0
  6
Continuous
 62
     2
370
    13
100
AcDbCircle
 10
-2063.057148493587
 20
-1007.844031974511
 30
0.0
 40
25.57733068615198
100
AcDbArc
 50
270.0
 51
322.3737663641962
  0
LINE
  5
257
330
1F
100
AcDbEntity
  8
0
  6
Continuous
 62
     2
370
    13
100
AcDbLine
 10
-2168.337011270813
 20
2528.386452720579
 30
0.0
 11
1197.500936353294
 21
2528.386452720579
 31
0.0
  0
LINE
  5
258
330
1F
100
AcDbEntity
  8
0
  6
Continuous
 62
     2
370
    13
100
AcDbLine
 10
1197.500936353294
 20
2528.386452720579
 30
0.0
 11
1197.500936353294
 21
2031.157060358865
 31
0.0
  0
LINE
  5
259
330
1F
100
AcDbEntity
  8
0
  6
Continuous
 62
     2
370
    13
100
AcDbLine
 10
1197.500936353294
 20
2031.157060358865
 30
0.0
 11
-2168.337011270813
 21
2031.157060358865
 31
0.0
  0
LINE
  5
25A
330
1F
100
AcDbEntity
  8
0
  6
Continuous
 62
     2
370
    13
100
AcDbLine
 10
-2168.337011270813
 20
2031.157060358865
 30
0.0
 11
-2168.337011270813
 21
2528.386452720579
 31
0.0
  0
LINE
  5
25B
330
1F
100
AcDbEntity
  8
0
  6
Continuous
 62
     2
370
    13
100
AcDbLine
 10
-292.4507785777961
 20
251.2129297430008
 30
0.0
 11
-242.4507785777961
 21
251.2129297430008
 31
0.0
  0
LINE
  5
25C
330
1F
100
AcDbEntity
  8
0
  6
Continuous
 62
     2
370
    13
100
AcDbLine
 10
-292.4507785777961
 20
381.2129297430008
 30
0.0
 11
-242.4507785777961
 21
381.2129297430008
 31
0.0
  0
LINE
  5
25D
330
1F
100
AcDbEntity
  8
0
  6
Continuous
 62
     2
370
    13
100
AcDbLine
 10
1857.549221422204
 20
381.2129297430008
 30
0.0
 11
1907.549221422204
 21
381.2129297430008
 31
0.0
  0
LINE
  5
25E
330
1F
100
AcDbEntity
  8
0
  6
Continuous
 62
     2
370
    13
100
AcDbLine
 10
1857.549221422204
 20
251.2129297430008
 30
0.0
 11
1907.549221422204
 21
251.2129297430008
 31
0.0
  0
LINE
  5
25F
330
1F
100
AcDbEntity
  8
0
  6
Continuous
 62
     2
370
    13
100
AcDbLine
 10
247.549221422204
 20
1361.212929743001
 30
0.0
 11
397.549221422204
 21
1361.212929743001
 31
0.0
  0
LINE
  5
260
330
1F
100
AcDbEntity
  8
0
  6
Continuous
 62
     2
370
    13
100
AcDbLine
 10
247.5492214224834
 20
1361.212929743001
 30
0.0
 11
397.5492214224834
 21
1361.212929743001
 31
0.0
  0
LINE
  5
261
330
1F
100
AcDbEntity
  8
0
  6
Continuous
 62
     2
370
    13
100
AcDbLine
 10
397.549221422204
 20
1211.212929743001
 30
0.0
 11
247.549221422204
 21
1211.212929743001
 31
0.0
  0
LINE
  5
262
330
1F
100
AcDbEntity
  8
0
  6
Continuous
 62
     2
370
    13
100
AcDbLine
 10
397.5492214224834
 20
1211.212929743001
 30
0.0
 11
247.5492214224834
 21
1211.212929743001
 31
0.0
  0
LINE
  5
263
330
1F
100
AcDbEntity
  8
0
  6
Continuous
 62
     2
370
    13
100
AcDbLine
 10
1217.549221422018
 20
1361.212929743001
 30
0.0
 11
1367.549221422018
 21
1361.212929743001
 31
0.0
  0
LINE
  5
264
330
1F
100
AcDbEntity
  8
0
  6
Continuous
 62
     2
370
    13
100
AcDbLine
 10
1367.549221422018
 20
1211.212929743001
 30
0.0
 11
1217.549221422018
 21
1211.212929743001
 31
0.0
  0
LINE
  5
265
330
1F
100
AcDbEntity
  8
0
  6
Continuous
 62
     2
370
    13
100
AcDbLine
 10
397.5492214224834
 20
241.2129297430008
 30
0.0
 11
247.5492214224834
 21
241.2129297430008
 31
0.0
  0
LINE
  5
266
330
1F
100
AcDbEntity
  8
0
  6
Continuous
 62
     2
370
    13
100
AcDbLine
 10
247.5492214224834
 20
391.2129297430008
 30
0.0
 11
397.5492214224834
 21
391.2129297430008
 31
0.0
  0
LINE
  5
267
330
1F
100
AcDbEntity
  8
0
  6
Continuous
 62
     2
370
    13
100
AcDbLine
 10
-193.4507785777961
 20
-1363.857330806131
 30
0.0
 11
1857.549221422204
 21
-1363.857330806131
 31
0.0
  0
LINE
  5
268
330
1F
100
AcDbEntity
  8
0
  6
Continuous
 62
     2
370
    13
100
AcDbLine
 10
1367.549221422018
 20
-1285.657330806037
 30
0.0
 11
1367.549221422018
 21
-1360.657330806037
 31
0.0
  0
LINE
  5
269
330
1F
100
AcDbEntity
  8
0
  6
Continuous
 62
     2
370
    13
100
AcDbLine
 10
1217.549221422018
 20
-1285.657330806037
 30
0.0
 11
1217.549221422018
 21
-1360.657330806037
 31
0.0
  0
LINE
  5
26A
330
1F
100
AcDbEntity
  8
0
  6
Continuous
 62
     2
370
    13
100
AcDbLine
 10
1367.549221422018
 20
-1285.657330806037
 30
0.0
 11
1217.549221422018
 21
-1285.657330806037
 31
0.0
  0
LINE
  5
26B
330
1F
100
AcDbEntity
  8
0
  6
Continuous
 62
     2
370
    13
100
AcDbLine
 10
1355.351369937004
 20
-1301.285773378537
 30
0.0
 11
1360.146390527447
 21
-1356.093109519846
 31
0.0
  0
LINE
  5
26C
330
1F
100
AcDbEntity
  8
0
  6
Continuous
 62
     2
370
    13
100
AcDbLine
 10
1229.747072906939
 20
-1301.285773378537
 30
0.0
 11
1224.952052316589
 21
-1356.093109519846
 31
0.0
  0
LINE
  5
26D
330
1F
100
AcDbEntity
  8
0
  6
Continuous
 62
     2
370
    13
100
AcDbLine
 10
1345.389422956069
 20
-1292.157330806037
 30
0.0
 11
1239.709019887873
 21
-1292.157330806037
 31
0.0
  0
LINE
  5
26E
330
1F
100
AcDbEntity
  8
0
  6
Continuous
 62
     2
370
    13
100
AcDbLine
 10
1367.549221422018
 20
-1360.657330806037
 30
0.0
 11
1365.127364017775
 21
-1360.657330806037
 31
0.0
  0
LINE
  5
26F
330
1F
100
AcDbEntity
  8
0
  6
Continuous
 62
     2
370
    13
100
AcDbLine
 10
1217.549221422018
 20
-1360.657330806037
 30
0.0
 11
1219.971078826168
 21
-1360.657330806037
 31
0.0
  0
LINE
  5
270
330
1F
100
AcDbEntity
  8
0
  6
Continuous
 62
     2
370
    13
100
AcDbLine
 10
247.5492214221109
 20
241.2129297430939
 30
0.0
 11
247.549221422204
 21
391.2129297430939
 31
0.0
  0
LINE
  5
271
330
1F
100
AcDbEntity
  8
0
  6
Continuous
 62
     2
370
    13
100
AcDbLine
 10
397.549221422204
 20
391.2129297430939
 30
0.0
 11
397.549221422204
 21
241.2129297430939
 31
0.0
  0
LINE
  5
272
330
1F
100
AcDbEntity
  8
0
  6
Continuous
 62
     2
370
    13
100
AcDbLine
 10
1367.549221422018
 20
391.2129297431871
 30
0.0
 11
1367.549221422018
 21
241.2129297430939
 31
0.0
  0
LINE
  5
273
330
1F
100
AcDbEntity
  8
0
  6
Continuous
 62
     2
370
    13
100
AcDbLine
 10
1217.549221422018
 20
241.2129297430939
 30
0.0
 11
1217.549221422018
 21
391.2129297430939
 31
0.0
  0
LINE
  5
274
330
1F
100
AcDbEntity
  8
0
  6
Continuous
 62
     2
370
    13
100
AcDbLine
 10
247.549221422204
 20
241.2129297430008
 30
0.0
 11
247.549221422204
 21
391.2129297430008
 31
0.0
  0
LINE
  5
275
330
1F
100
AcDbEntity
  8
0
  6
Continuous
 62
     2
370
    13
100
AcDbLine
 10
247.549221422204
 20
391.2129297430008
 30
0.0
 11
397.549221422204
 21
391.2129297430008
 31
0.0
  0
LINE
  5
276
330
1F
100
AcDbEntity
  8
0
  6
Continuous
 62
     2
370
    13
100
AcDbLine
 10
397.549221422204
 20
391.2129297430008
 30
0.0
 11
397.549221422204
 21
241.2129297430008
 31
0.0
  0
LINE
  5
277
330
1F
100
AcDbEntity
  8
0
  6
Continuous
 62
     2
370
    13
100
AcDbLine
 10
397.549221422204
 20
241.2129297430008
 30
0.0
 11
247.549221422204
 21
241.2129297430008
 31
0.0
  0
LINE
  5
278
330
1F
100
AcDbEntity
  8
0
  6
Continuous
 62
     2
370
    13
100
AcDbLine
 10
1367.549221422018
 20
391.2129297430008
 30
0.0
 11
1367.549221422018
 21
241.2129297430008
 31
0.0
  0
LINE
  5
279
330
1F
100
AcDbEntity
  8
0
  6
Continuous
 62
     2
370
    13
100
AcDbLine
 10
1367.549221422018
 20
241.2129297430008
 30
0.0
 11
1217.549221422018
 21
241.2129297430008
 31
0.0
  0
LINE
  5
27A
330
1F
100
AcDbEntity
  8
0
  6
Continuous
 62
     2
370
    13
100
AcDbLine
 10
1217.549221422018
 20
241.2129297430008
 30
0.0
 11
1217.549221422018
 21
391.2129297430008
 31
0.0
  0
LINE
  5
27B
330
1F
100
AcDbEntity
  8
0
  6
Continuous
 62
     2
370
    13
100
AcDbLine
 10
1217.549221422018
 20
391.2129297430008
 30
0.0
 11
1367.549221422018
 21
391.2129297430008
 31
0.0
  0
LINE
  5
27C
330
1F
100
AcDbEntity
  8
0
  6
Continuous
 62
     2
370
    13
100
AcDbLine
 10
1367.549221422018
 20
1211.212929742884
 30
0.0
 11
1217.549221422018
 21
1211.212929742884
 31
0.0
  0
LINE
  5
27D
330
1F
100
AcDbEntity
  8
0
  6
Continuous
 62
     2
370
    13
100
AcDbLine
 10
1367.549221422018
 20
1361.212929742884
 30
0.0
 11
1367.549221422018
 21
1211.212929742884
 31
0.0
  0
LINE
  5
27E
330
1F
100
AcDbEntity
  8
0
  6
Continuous
 62
     2
370
    13
100
AcDbLine
 10
1217.549221422018
 20
1361.212929742884
 30
0.0
 11
1367.549221422018
 21
1361.212929742884
 31
0.0
  0
LINE
  5
27F
330
1F
100
AcDbEntity
  8
0
  6
Continuous
 62
     2
370
    13
100
AcDbLine
 10
1217.549221422018
 20
1211.212929742884
 30
0.0
 11
1217.549221422018
 21
1361.212929742884
 31
0.0
  0
LINE
  5
280
330
1F
100
AcDbEntity
  8
0
  6
Continuous
 62
     2
370
    13
100
AcDbLine
 10
397.549221422204
 20
1361.212929742884
 30
0.0
 11
397.549221422204
 21
1211.212929742884
 31
0.0
  0
LINE
  5
281
330
1F
100
AcDbEntity
  8
0
  6
Continuous
 62
     2
370
    13
100
AcDbLine
 10
247.5492214221109
 20
1361.212929742884
 30
0.0
 11
397.549221422204
 21
1361.212929742884
 31
0.0
  0
LINE
  5
282
330
1F
100
AcDbEntity
  8
0
  6
Continuous
 62
     2
370
    13
100
AcDbLine
 10
247.549221422204
 20
1211.212929742884
 30
0.0
 11
247.5492214221109
 21
1361.212929742884
 31
0.0
  0
LINE
  5
283
330
1F
100
AcDbEntity
  8
0
  6
Continuous
 62
     2
370
    13
100
AcDbLine
 10
397.549221422204
 20
1211.212929742884
 30
0.0
 11
247.549221422204
 21
1211.212929742884
 31
0.0
  0
LINE
  5
284
330
1F
100
AcDbEntity
  8
0
  6
Continuous
 62
     2
370
    13
100
AcDbLine
 10
1846.660332533212
 20
-1406.868822790632
 30
0.0
 11
1852.882554755506
 21
-1406.203568970851
 31
0.0
  0
LINE
  5
285
330
1F
100
AcDbEntity
  8
0
  6
Continuous
 62
     2
370
    13
100
AcDbLine
 10
1852.882554755506
 20
-1387.288870419162
 30
0.0
 11
1846.660332533212
 21
-1386.623616599428
 31
0.0
  0
LINE
  5
286
330
1F
100
AcDbEntity
  8
0
  6
Continuous
 62
     2
370
    13
100
AcDbLine
 10
1831.549221421925
 20
-1406.203568970851
 30
0.0
 11
1837.771443644126
 21
-1406.868822790632
 31
0.0
  0
LINE
  5
287
330
1F
100
AcDbEntity
  8
0
  6
Continuous
 62
     2
370
    13
100
AcDbLine
 10
1837.771443644126
 20
-1386.623616599428
 30
0.0
 11
1831.549221421925
 21
-1387.288870419162
 31
0.0
  0
LINE
  5
288
330
1F
100
AcDbEntity
  8
0
  6
Continuous
 62
     2
370
    13
100
AcDbLine
 10
1837.771443644126
 20
-1408.301775250534
 30
0.0
 11
1837.771443644126
 21
-1385.190664139526
 31
0.0
  0
LINE
  5
289
330
1F
100
AcDbEntity
  8
0
  6
Continuous
 62
     2
370
    13
100
AcDbLine
 10
1846.660332533025
 20
-1408.301775250534
 30
0.0
 11
1837.771443644126
 21
-1408.301775250534
 31
0.0
  0
LINE
  5
28A
330
1F
100
AcDbEntity
  8
0
  6
Continuous
 62
     2
370
    13
100
AcDbLine
 10
1846.660332533025
 20
-1385.190664139526
 30
0.0
 11
1846.660332533025
 21
-1408.301775250534
 31
0.0
  0
LINE
  5
28B
330
1F
100
AcDbEntity
  8
0
  6
Continuous
 62
     2
370
    13
100
AcDbLine
 10
1837.771443644126
 20
-1385.190664139526
 30
0.0
 11
1846.660332533025
 21
-1385.190664139526
 31
0.0
  0
LINE
  5
28C
330
1F
100
AcDbEntity
  8
0
  6
Continuous
 62
     2
370
    13
100
AcDbLine
 10
1798.809812901502
 20
-1372.74621969503
 30
0.0
 11
1797.904776977801
 21
-1368.387879084443
 31
0.0
  0
LINE
  5
28D
330
1F
100
AcDbEntity
  8
0
  6
Continuous
 62
     2
370
    13
100
AcDbLine
 10
1817.193665866421
 20
-1368.387879084443
 30
0.0
 11
1816.28862994272
 21
-1372.74621969503
 31
0.0
  0
LINE
  5
28E
330
1F
100
AcDbEntity
  8
0
  6
Continuous
 62
     2
370
    13
100
AcDbLine
 10
1797.904776977801
 20
-1368.387879084443
 30
0.0
 11
1817.193665866421
 21
-1368.387879084443
 31
0.0
  0
LINE
  5
28F
330
1F
100
AcDbEntity
  8
0
  6
Continuous
 62
     2
370
    13
100
AcDbLine
 10
1821.251313150634
 20
-1385.401844783426
 30
0.0
 11
1825.326999199723
 21
-1385.401844783426
 31
0.0
  0
LINE
  5
290
330
1F
100
AcDbEntity
  8
0
  6
Continuous
 62
     2
370
    13
100
AcDbLine
 10
1825.326999199723
 20
-1408.090594606633
 30
0.0
 11
1813.982624288329
 21
-1408.090594606633
 31
0.0
  0
LINE
  5
291
330
1F
100
AcDbEntity
  8
0
  6
Continuous
 62
     2
370
    13
100
AcDbLine
 10
1825.326999199723
 20
-1382.51543415824
 30
0.0
 11
1825.326999199723
 21
-1410.977005231936
 31
0.0
  0
LINE
  5
292
330
1F
100
AcDbEntity
  8
0
  6
Continuous
 62
     2
370
    13
100
AcDbLine
 10
1831.549221421925
 20
-1382.51543415824
 30
0.0
 11
1831.549221421925
 21
-1410.977005231936
 31
0.0
  0
LINE
  5
293
330
1F
100
AcDbEntity
  8
0
  6
Continuous
 62
     2
370
    13
100
AcDbLine
 10
1825.326999199723
 20
-1382.51543415824
 30
0.0
 11
1831.549221421925
 21
-1382.51543415824
 31
0.0
  0
LINE
  5
294
330
1F
100
AcDbEntity
  8
0
  6
Continuous
 62
     2
370
    13
100
AcDbLine
 10
1831.549221421925
 20
-1410.977005231936
 30
0.0
 11
1825.326999199723
 21
-1410.977005231936
 31
0.0
  0
LINE
  5
295
330
1F
100
AcDbEntity
  8
0
  6
Continuous
 62
     2
370
    13
100
AcDbLine
 10
1797.904776977801
 20
-1363.857330806131
 30
0.0
 11
1797.904776977801
 21
-1368.387879084443
 31
0.0
  0
LINE
  5
296
330
1F
100
AcDbEntity
  8
0
  6
Continuous
 62
     2
370
    13
100
AcDbLine
 10
1817.193665866421
 20
-1363.857330806131
 30
0.0
 11
1817.193665866421
 21
-1368.387879084443
 31
0.0
  0
LINE
  5
297
330
1F
100
AcDbEntity
  8
0
  6
Continuous
 62
     2
370
    13
100
AcDbLine
 10
1796.204846510624
 20
-1390.312816828928
 30
0.0
 11
1796.204846510624
 21
-1378.968441917255
 31
0.0
  0
LINE
  5
298
330
1F
100
AcDbEntity
  8
0
  6
Continuous
 62
     2
370
    13
100
AcDbLine
 10
1818.893596333877
 20
-1378.968441917255
 30
0.0
 11
1818.893596333877
 21
-1383.044127966646
 31
0.0
  0
LINE
  5
299
330
1F
100
AcDbEntity
  8
0
  6
Continuous
 62
     2
370
    13
100
AcDbLine
 10
1793.318435885438
 20
-1378.968441917255
 30
0.0
 11
1821.780006959156
 21
-1378.968441917255
 31
0.0
  0
LINE
  5
29A
330
1F
100
AcDbEntity
  8
0
  6
Continuous
 62
     2
370
    13
100
AcDbLine
 10
1793.318435885438
 20
-1372.74621969503
 30
0.0
 11
1821.780006959156
 21
-1372.74621969503
 31
0.0
  0
LINE
  5
29B
330
1F
100
AcDbEntity
  8
0
  6
Continuous
 62
     2
370
    13
100
AcDbLine
 10
1793.318435885438
 20
-1378.968441917255
 30
0.0
 11
1793.318435885438
 21
-1372.74621969503
 31
0.0
  0
LINE
  5
29C
330
1F
100
AcDbEntity
  8
0
  6
Continuous
 62
     2
370
    13
100
AcDbLine
 10
1821.780006959156
 20
-1372.74621969503
 30
0.0
 11
1821.780006959156
 21
-1378.968441917255
 31
0.0
  0
LINE
  5
29D
330
1F
100
AcDbEntity
  8
0
  6
Continuous
 62
     2
370
    13
100
AcDbLine
 10
1870.084200957285
 20
-1411.412886361634
 30
0.0
 11
1888.125352998038
 21
-1411.412886361634
 31
0.0
  0
LINE
  5
29E
330
1F
100
AcDbEntity
  8
0
  6
Continuous
 62
     2
370
    13
100
AcDbLine
 10
1888.125352998038
 20
-1411.412886361634
 30
0.0
 11
1888.125352997945
 21
-1408.301775250534
 31
0.0
  0
LINE
  5
29F
330
1F
100
AcDbEntity
  8
0
  6
Continuous
 62
     2
370
    13
100
AcDbLine
 10
1870.084200957378
 20
-1408.301775250534
 30
0.0
 11
1870.084200957285
 21
-1411.412886361634
 31
0.0
  0
LINE
  5
2A0
330
1F
100
AcDbEntity
  8
0
  6
Continuous
 62
     2
370
    13
100
AcDbLine
 10
1866.033953680617
 20
-1383.138366873745
 30
0.0
 11
1892.175600274799
 21
-1383.138366873745
 31
0.0
  0
LINE
  5
2A1
330
1F
100
AcDbEntity
  8
0
  6
Continuous
 62
     2
370
    13
100
AcDbLine
 10
1868.260275529285
 20
-1380.460924263528
 30
0.0
 11
1868.260275529285
 21
-1370.49524058513
 31
0.0
  0
LINE
  5
2A2
330
1F
100
AcDbEntity
  8
0
  6
Continuous
 62
     2
370
    13
100
AcDbLine
 10
1891.525720716042
 20
-1372.273018362835
 30
0.0
 11
1870.038053307084
 21
-1372.273018362835
 31
0.0
  0
LINE
  5
2A3
330
1F
100
AcDbEntity
  8
0
  6
Continuous
 62
     2
370
    13
100
AcDbLine
 10
1866.033953680617
 20
-1385.190664139526
 30
0.0
 11
1866.033953680617
 21
-1383.138366873745
 31
0.0
  0
LINE
  5
2A4
330
1F
100
AcDbEntity
  8
0
  6
Continuous
 62
     2
370
    13
100
AcDbLine
 10
1852.882554755227
 20
-1408.301775250534
 30
0.0
 11
1870.084200957378
 21
-1408.301775250534
 31
0.0
  0
LINE
  5
2A5
330
1F
100
AcDbEntity
  8
0
  6
Continuous
 62
     2
370
    13
100
AcDbLine
 10
1888.125352997945
 20
-1408.301775250534
 30
0.0
 11
1905.326999199723
 21
-1408.301775250534
 31
0.0
  0
LINE
  5
2A6
330
1F
100
AcDbEntity
  8
0
  6
Continuous
 62
     2
370
    13
100
AcDbLine
 10
1905.326999199723
 20
-1385.190664139526
 30
0.0
 11
1905.326999199723
 21
-1408.301775250534
 31
0.0
  0
LINE
  5
2A7
330
1F
100
AcDbEntity
  8
0
  6
Continuous
 62
     2
370
    13
100
AcDbLine
 10
1852.882554755227
 20
-1385.190664139526
 30
0.0
 11
1852.882554755227
 21
-1408.301775250534
 31
0.0
  0
LINE
  5
2A8
330
1F
100
AcDbEntity
  8
0
  6
Continuous
 62
     2
370
    13
100
AcDbLine
 10
1902.187045123388
 20
-1361.190664139526
 30
0.0
 11
1902.187045123388
 21
-1364.74621969503
 31
0.0
  0
LINE
  5
2A9
330
1F
100
AcDbEntity
  8
0
  6
Continuous
 62
     2
370
    13
100
AcDbLine
 10
1902.187045123388
 20
-1361.190664139526
 30
0.0
 11
1950.215888088529
 21
-1361.190664139526
 31
0.0
  0
LINE
  5
2AA
330
1F
100
AcDbEntity
  8
0
  6
Continuous
 62
     2
370
    13
100
AcDbLine
 10
1902.187045123388
 20
-1364.74621969503
 30
0.0
 11
1950.215888088529
 21
-1364.74621969503
 31
0.0
  0
LINE
  5
2AB
330
1F
100
AcDbEntity
  8
0
  6
Continuous
 62
     2
370
    13
100
AcDbLine
 10
1902.187045123388
 20
-1363.857330806131
 30
0.0
 11
1891.525720716042
 21
-1372.273018362835
 31
0.0
  0
LINE
  5
2AC
330
1F
100
AcDbEntity
  8
0
  6
Continuous
 62
     2
370
    13
100
AcDbLine
 10
1890.908609057271
 20
-1370.49524058513
 30
0.0
 11
1868.260275529285
 21
-1370.49524058513
 31
0.0
  0
LINE
  5
2AD
330
1F
100
AcDbEntity
  8
0
  6
Continuous
 62
     2
370
    13
100
AcDbLine
 10
1890.908609057271
 20
-1370.49524058513
 30
0.0
 11
1901.569933464525
 21
-1362.079553028355
 31
0.0
  0
LINE
  5
2AE
330
1F
100
AcDbEntity
  8
0
  6
Continuous
 62
     2
370
    13
100
AcDbLine
 10
1901.569933464525
 20
-1362.079553028355
 30
0.0
 11
1902.187045123388
 21
-1362.079553028355
 31
0.0
  0
LINE
  5
2AF
330
1F
100
AcDbEntity
  8
0
  6
Continuous
 62
     2
370
    13
100
AcDbLine
 10
1870.038053307084
 20
-1372.273018362835
 30
0.0
 11
1870.038053307084
 21
-1383.138366873745
 31
0.0
  0
LINE
  5
2B0
330
1F
100
AcDbEntity
  8
0
  6
Continuous
 62
     2
370
    13
100
AcDbLine
 10
1892.175600274799
 20
-1383.138366873745
 30
0.0
 11
1892.175600274612
 21
-1385.190664139526
 31
0.0
  0
LINE
  5
2B1
330
1F
100
AcDbEntity
  8
0
  6
Continuous
 62
     2
370
    13
100
AcDbLine
 10
1888.910475289409
 20
-1380.460924263528
 30
0.0
 11
1888.910475289503
 21
-1372.273018362835
 31
0.0
  0
LINE
  5
2B2
330
1F
100
AcDbEntity
  8
0
  6
Continuous
 62
     2
370
    13
100
AcDbLine
 10
1888.910475289409
 20
-1380.460924263528
 30
0.0
 11
1892.175600274799
 21
-1383.138366873745
 31
0.0
  0
LINE
  5
2B3
330
1F
100
AcDbEntity
  8
0
  6
Continuous
 62
     2
370
    13
100
AcDbLine
 10
1866.033953680617
 20
-1385.190664139526
 30
0.0
 11
1852.882554755227
 21
-1385.190664139526
 31
0.0
  0
LINE
  5
2B4
330
1F
100
AcDbEntity
  8
0
  6
Continuous
 62
     2
370
    13
100
AcDbLine
 10
1892.175600274612
 20
-1385.190664139526
 30
0.0
 11
1905.326999199723
 21
-1385.190664139526
 31
0.0
  0
LINE
  5
2B5
330
1F
100
AcDbEntity
  8
0
  6
Continuous
 62
     2
370
    13
100
AcDbLine
 10
1876.438110310638
 20
-1362.876581356042
 30
0.0
 11
1881.771443643661
 21
-1362.876581356042
 31
0.0
  0
LINE
  5
2B6
330
1F
100
AcDbEntity
  8
0
  6
Continuous
 62
     2
370
    13
100
AcDbLine
 10
1873.998374709354
 20
-1365.657980780463
 30
0.0
 11
1884.211179245782
 21
-1365.657980780463
 31
0.0
  0
LINE
  5
2B7
330
1F
100
AcDbEntity
  8
0
  6
Continuous
 62
     2
370
    13
100
AcDbLine
 10
1884.211179245782
 20
-1365.657980780463
 30
0.0
 11
1884.211179245875
 21
-1370.49524058513
 31
0.0
  0
LINE
  5
2B8
330
1F
100
AcDbEntity
  8
0
  6
Continuous
 62
     2
370
    13
100
AcDbLine
 10
1881.771443643661
 20
-1362.876581356042
 30
0.0
 11
1881.771443644126
 21
-1365.657980780463
 31
0.0
  0
LINE
  5
2B9
330
1F
100
AcDbEntity
  8
0
  6
Continuous
 62
     2
370
    13
100
AcDbLine
 10
1876.438110310638
 20
-1362.876581356042
 30
0.0
 11
1876.438110310638
 21
-1365.657980780835
 31
0.0
  0
LINE
  5
2BA
330
1F
100
AcDbEntity
  8
0
  6
Continuous
 62
     2
370
    13
100
AcDbLine
 10
1873.998374709354
 20
-1365.657980780463
 30
0.0
 11
1873.998374709354
 21
-1370.49524058513
 31
0.0
  0
LINE
  5
2BB
330
1F
100
AcDbEntity
  8
0
  6
Continuous
 62
     2
370
    13
100
AcDbLine
 10
1881.276753785515
 20
-1365.657980780463
 30
0.0
 11
1881.276753785515
 21
-1370.49524058513
 31
0.0
  0
LINE
  5
2BC
330
1F
100
AcDbEntity
  8
0
  6
Continuous
 62
     2
370
    13
100
AcDbLine
 10
1876.932800169715
 20
-1370.49524058513
 30
0.0
 11
1876.932800169715
 21
-1365.657980780463
 31
0.0
  0
LINE
  5
2BD
330
1F
100
AcDbEntity
  8
0
  6
Continuous
 62
     2
370
    13
100
AcDbLine
 10
1950.215888088529
 20
-1361.190664139526
 30
0.0
 11
1950.215888088529
 21
-1364.74621969503
 31
0.0
  0
LINE
  5
2BE
330
1F
100
AcDbEntity
  8
0
  6
Continuous
 62
     2
370
    13
100
AcDbLine
 10
1868.260275529285
 20
-1380.460924263528
 30
0.0
 11
1888.910475289409
 21
-1380.460924263528
 31
0.0
  0
LINE
  5
2BF
330
1F
100
AcDbEntity
  8
0
  6
Continuous
 62
     2
370
    13
100
AcDbLine
 10
-284.9507785778892
 20
-1363.857330806131
 30
0.0
 11
-242.4507785777961
 21
-1363.857330806131
 31
0.0
  0
LINE
  5
2C0
330
1F
100
AcDbEntity
  8
0
  6
Continuous
 62
     2
370
    13
100
AcDbLine
 10
-299.9507785778892
 20
-1378.857330806131
 30
0.0
 11
-299.9507785778892
 21
-1438.857330806131
 31
0.0
  0
LINE
  5
2C1
330
1F
100
AcDbEntity
  8
0
  6
Continuous
 62
     2
370
    13
100
AcDbLine
 10
-284.9507785778892
 20
-1363.857330806131
 30
0.0
 11
-299.9507785778892
 21
-1378.857330806131
 31
0.0
  0
LINE
  5
2C2
330
1F
100
AcDbEntity
  8
0
  6
Continuous
 62
     2
370
    13
100
AcDbLine
 10
-242.4507785778892
 20
1211.212929743001
 30
0.0
 11
-292.4507785777961
 21
1211.212929743001
 31
0.0
  0
LINE
  5
2C3
330
1F
100
AcDbEntity
  8
0
  6
Continuous
 62
     2
370
    13
100
AcDbLine
 10
-242.4507785777961
 20
1221.212929743001
 30
0.0
 11
-292.4507785777961
 21
1221.212929743001
 31
0.0
  0
LINE
  5
2C4
330
1F
100
AcDbEntity
  8
0
  6
Continuous
 62
     2
370
    13
100
AcDbLine
 10
-242.4507785777961
 20
1361.212929743001
 30
0.0
 11
-292.4507785777961
 21
1361.212929743001
 31
0.0
  0
LINE
  5
2C5
330
1F
100
AcDbEntity
  8
0
  6
Continuous
 62
     2
370
    13
100
AcDbLine
 10
-242.4507785777961
 20
1351.212929743001
 30
0.0
 11
-292.4507785777961
 21
1351.212929743001
 31
0.0
  0
LINE
  5
2C6
330
1F
100
AcDbEntity
  8
0
  6
Continuous
 62
     2
370
    13
100
AcDbLine
 10
-292.4507785777961
 20
1361.212929743001
 30
0.0
 11
-292.4507785777961
 21
1211.212929743001
 31
0.0
  0
LINE
  5
2C7
330
1F
100
AcDbEntity
  8
0
  6
Continuous
 62
     2
370
    13
100
AcDbLine
 10
1907.549221422204
 20
1221.212929743001
 30
0.0
 11
1857.549221422204
 21
1221.212929743001
 31
0.0
  0
LINE
  5
2C8
330
1F
100
AcDbEntity
  8
0
  6
Continuous
 62
     2
370
    13
100
AcDbLine
 10
1907.549221422204
 20
1351.212929743001
 30
0.0
 11
1857.549221422204
 21
1351.212929743001
 31
0.0
  0
LINE
  5
2C9
330
1F
100
AcDbEntity
  8
0
  6
Continuous
 62
     2
370
    13
100
AcDbLine
 10
1857.549221422204
 20
1027.91611624149
 30
0.0
 11
1857.549221422204
 21
-163.7870702569992
 31
0.0
  0
LINE
  5
2CA
330
1F
100
AcDbEntity
  8
0
  6
Continuous
 62
     2
370
    13
100
AcDbLine
 10
-242.4507785777961
 20
1027.91611624149
 30
0.0
 11
-242.4507785777961
 21
1766.212929743094
 31
0.0
  0
LINE
  5
2CB
330
1F
100
AcDbEntity
  8
0
  6
Continuous
 62
     2
370
    13
100
AcDbLine
 10
1862.412224355766
 20
813.5629297430008
 30
0.0
 11
1862.412224355766
 21
788.8629297430008
 31
0.0
  0
LINE
  5
2CC
330
1F
100
AcDbEntity
  8
0
  6
Continuous
 62
     2
370
    13
100
AcDbLine
 10
1908.412224355766
 20
809.5684144379884
 30
0.0
 11
1908.412224355766
 21
813.5629297430008
 31
0.0
  0
LINE
  5
2CD
330
1F
100
AcDbEntity
  8
0
  6
Continuous
 62
     2
370
    13
100
AcDbLine
 10
1892.248641193059
 20
792.85744504799
 30
0.0
 11
1885.732782189322
 21
790.0403976145979
 31
0.0
  0
LINE
  5
2CE
330
1F
100
AcDbEntity
  8
0
  6
Continuous
 62
     2
370
    13
100
AcDbLine
 10
1878.912224355766
 20
790.0403976145979
 30
0.0
 11
1885.732782189322
 21
790.0403976145979
 31
0.0
  0
LINE
  5
2CF
330
1F
100
AcDbEntity
  8
0
  6
Continuous
 62
     2
370
    13
100
AcDbLine
 10
1892.248641193059
 20
792.85744504799
 30
0.0
 11
1885.732782189322
 21
790.0403976145979
 31
0.0
  0
LINE
  5
2D0
330
1F
100
AcDbEntity
  8
0
  6
Continuous
 62
     2
370
    13
100
AcDbLine
 10
1971.912224355673
 20
792.85744504799
 30
0.0
 11
1892.248641193059
 21
792.85744504799
 31
0.0
  0
LINE
  5
2D1
330
1F
100
AcDbEntity
  8
0
  6
Continuous
 62
     2
370
    13
100
AcDbLine
 10
1971.912224355673
 20
809.5684144379884
 30
0.0
 11
1971.912224355673
 21
792.85744504799
 31
0.0
  0
LINE
  5
2D2
330
1F
100
AcDbEntity
  8
0
  6
Continuous
 62
     2
370
    13
100
AcDbLine
 10
1892.248641193059
 20
809.5684144379884
 30
0.0
 11
1971.912224355673
 21
809.5684144379884
 31
0.0
  0
LINE
  5
2D3
330
1F
100
AcDbEntity
  8
0
  6
Continuous
 62
     2
370
    13
100
AcDbLine
 10
1885.732782189322
 20
812.3854618714038
 30
0.0
 11
1892.248641193059
 21
809.5684144379884
 31
0.0
  0
LINE
  5
2D4
330
1F
100
AcDbEntity
  8
0
  6
Continuous
 62
     2
370
    13
100
AcDbLine
 10
1885.732782189322
 20
812.3854618714038
 30
0.0
 11
1878.912224355766
 21
812.3854618714038
 31
0.0
  0
LINE
  5
2D5
330
1F
100
AcDbEntity
  8
0
  6
Continuous
 62
     2
370
    13
100
AcDbLine
 10
1889.060372378731
 20
788.1954149096819
 30
0.0
 11
1889.060372378731
 21
788.8629297430008
 31
0.0
  0
LINE
  5
2D6
330
1F
100
AcDbEntity
  8
0
  6
Continuous
 62
     2
370
    13
100
AcDbLine
 10
1887.591782979441
 20
814.6087037872836
 30
0.0
 11
1887.591782979441
 21
813.5629297430008
 31
0.0
  0
LINE
  5
2D7
330
1F
100
AcDbEntity
  8
0
  6
Continuous
 62
     2
370
    13
100
AcDbLine
 10
1889.060372378731
 20
788.1954149096819
 30
0.0
 11
1889.060372378731
 21
788.8629297430008
 31
0.0
  0
LINE
  5
2D8
330
1F
100
AcDbEntity
  8
0
  6
Continuous
 62
     2
370
    13
100
AcDbLine
 10
1887.591782979441
 20
814.6087037872836
 30
0.0
 11
1887.591782979441
 21
813.5629297430008
 31
0.0
  0
LINE
  5
2D9
330
1F
100
AcDbEntity
  8
0
  6
Continuous
 62
     2
370
    13
100
AcDbLine
 10
1889.060372378731
 20
788.8629297430008
 30
0.0
 11
1908.412224355766
 21
788.8629297430008
 31
0.0
  0
LINE
  5
2DA
330
1F
100
AcDbEntity
  8
0
  6
Continuous
 62
     2
370
    13
100
AcDbLine
 10
1887.591782979441
 20
813.5629297430008
 30
0.0
 11
1908.412224355766
 21
813.5629297430008
 31
0.0
  0
LINE
  5
2DB
330
1F
100
AcDbEntity
  8
0
  6
Continuous
 62
     2
370
    13
100
AcDbLine
 10
1908.412224355766
 20
788.8629297430008
 30
0.0
 11
1908.412224355766
 21
792.85744504799
 31
0.0
  0
LINE
  5
2DC
330
1F
100
AcDbEntity
  8
0
  6
Continuous
 62
     2
370
    13
100
AcDbLine
 10
1868.764076332894
 20
788.8629297430008
 30
0.0
 11
1868.764076332894
 21
788.1954149096819
 31
0.0
  0
LINE
  5
2DD
330
1F
100
AcDbEntity
  8
0
  6
Continuous
 62
     2
370
    13
100
AcDbLine
 10
1870.232665732091
 20
813.5629297430008
 30
0.0
 11
1870.232665732091
 21
814.6087037872836
 31
0.0
  0
LINE
  5
2DE
330
1F
100
AcDbEntity
  8
0
  6
Continuous
 62
     2
370
    13
100
AcDbLine
 10
1870.232665732091
 20
814.6087037872836
 30
0.0
 11
1884.852584347555
 21
814.6087037872836
 31
0.0
  0
LINE
  5
2DF
330
1F
100
AcDbEntity
  8
0
  6
Continuous
 62
     2
370
    13
100
AcDbLine
 10
1884.852584347555
 20
814.6087037872836
 30
0.0
 11
1887.591782979441
 21
814.6087037872836
 31
0.0
  0
LINE
  5
2E0
330
1F
100
AcDbEntity
  8
0
  6
Continuous
 62
     2
370
    13
100
AcDbLine
 10
1868.764076332894
 20
788.1954149096819
 30
0.0
 11
1889.060372378731
 21
788.1954149096819
 31
0.0
  0
LINE
  5
2E1
330
1F
100
AcDbEntity
  8
0
  6
Continuous
 62
     2
370
    13
100
AcDbLine
 10
1862.412224355766
 20
788.8629297430008
 30
0.0
 11
1868.764076332894
 21
788.8629297430008
 31
0.0
  0
LINE
  5
2E2
330
1F
100
AcDbEntity
  8
0
  6
Continuous
 62
     2
370
    13
100
AcDbLine
 10
1862.412224355766
 20
813.5629297430008
 30
0.0
 11
1870.232665732091
 21
813.5629297430008
 31
0.0
  0
LINE
  5
2E3
330
1F
100
AcDbEntity
  8
0
  6
Continuous
 62
     2
370
    13
100
AcDbLine
 10
-242.4507785777961
 20
-1363.857330806131
 30
0.0
 11
-242.4507785777961
 21
-869.0573308061537
 31
0.0
  0
LINE
  5
2E4
330
1F
100
AcDbEntity
  8
0
  6
Continuous
 62
     2
370
    13
100
AcDbLine
 10
-242.4507785777961
 20
1766.212929743094
 30
0.0
 11
1857.549221422204
 21
1766.212929742884
 31
0.0
  0
LINE
  5
2E5
330
1F
100
AcDbEntity
  8
0
  6
Continuous
 62
     2
370
    13
100
AcDbLine
 10
1857.549221422204
 20
1766.212929742884
 30
0.0
 11
1857.549221422204
 21
1027.91611624149
 31
0.0
  0
LINE
  5
2E6
330
1F
100
AcDbEntity
  8
0
  6
Continuous
 62
     2
370
    13
100
AcDbLine
 10
1857.549221422204
 20
-163.7870702569992
 30
0.0
 11
-242.4507785777961
 21
-163.7870702569992
 31
0.0
  0
LINE
  5
2E7
330
1F
100
AcDbEntity
  8
0
  6
Continuous
 62
     2
370
    13
100
AcDbLine
 10
-242.4507785777961
 20
-163.7870702569992
 30
0.0
 11
-242.4507785777961
 21
1027.91611624149
 31
0.0
  0
LINE
  5
2E8
330
1F
100
AcDbEntity
  8
0
  6
Continuous
 62
     2
370
    13
100
AcDbLine
 10
-299.9507785778892
 20
-1421.357330806131
 30
0.0
 11
-299.9507785778892
 21
-1438.857330806131
 31
0.0
  0
LINE
  5
2E9
330
1F
100
AcDbEntity
  8
0
  6
Continuous
 62
     2
370
    13
100
AcDbLine
 10
1857.549221422204
 20
-869.0573308061537
 30
0.0
 11
1857.549221422204
 21
-1363.857330806131
 31
0.0
  0
LINE
  5
2EA
330
1F
100
AcDbEntity
  8
0
  6
Continuous
 62
     2
370
    13
100
AcDbLine
 10
-237.2507785778892
 20
-863.8573308061304
 30
0.0
 11
1852.349221422018
 21
-863.8573308061304
 31
0.0
  0
LINE
  5
2EB
330
1F
100
AcDbEntity
  8
0
  6
Continuous
 62
     2
370
    13
100
AcDbLine
 10
-242.4507785777961
 20
-1363.857330806131
 30
0.0
 11
-193.4507785777961
 21
-1363.857330806131
 31
0.0
  0
LINE
  5
2EC
330
1F
100
AcDbEntity
  8
0
  6
Continuous
 62
     2
370
    13
100
AcDbLine
 10
1734.022699095921
 20
-1438.857330806131
 30
0.0
 11
-299.9507785778892
 21
-1438.857330806131
 31
0.0
  0
LINE
  5
2ED
330
1F
100
AcDbEntity
  8
0
  6
Continuous
 62
     2
370
    13
100
AcDbLine
 10
-292.4507785777961
 20
391.2129297433966
 30
0.0
 11
-242.4507785777029
 21
391.2129297433966
 31
0.0
  0
LINE
  5
2EE
330
1F
100
AcDbEntity
  8
0
  6
Continuous
 62
     2
370
    13
100
AcDbLine
 10
-292.4507785777961
 20
241.2129297433966
 30
0.0
 11
-242.4507785777961
 21
241.2129297433966
 31
0.0
  0
LINE
  5
2EF
330
1F
100
AcDbEntity
  8
0
  6
Continuous
 62
     2
370
    13
100
AcDbLine
 10
-292.4507785777961
 20
391.2129297433966
 30
0.0
 11
-292.4507785777961
 21
241.2129297433966
 31
0.0
  0
LINE
  5
2F0
330
1F
100
AcDbEntity
  8
0
  6
Continuous
 62
     2
370
    13
100
AcDbLine
 10
1907.549221422204
 20
1361.212929743001
 30
0.0
 11
1857.549221422204
 21
1361.212929743001
 31
0.0
  0
LINE
  5
2F1
330
1F
100
AcDbEntity
  8
0
  6
Continuous
 62
     2
370
    13
100
AcDbLine
 10
1907.549221422204
 20
1211.212929743001
 30
0.0
 11
1857.549221422204
 21
1211.212929743001
 31
0.0
  0
LINE
  5
2F2
330
1F
100
AcDbEntity
  8
0
  6
Continuous
 62
     2
370
    13
100
AcDbLine
 10
1907.549221422204
 20
1211.212929743001
 30
0.0
 11
1907.549221422204
 21
1361.212929743001
 31
0.0
  0
LINE
  5
2F3
330
1F
100
AcDbEntity
  8
0
  6
Continuous
 62
     2
370
    13
100
AcDbLine
 10
1907.549221422204
 20
391.2129297433966
 30
0.0
 11
1857.549221422204
 21
391.2129297433966
 31
0.0
  0
LINE
  5
2F4
330
1F
100
AcDbEntity
  8
0
  6
Continuous
 62
     2
370
    13
100
AcDbLine
 10
1907.549221422204
 20
241.2129297433966
 30
0.0
 11
1857.549221422204
 21
241.2129297433966
 31
0.0
  0
LINE
  5
2F5
330
1F
100
AcDbEntity
  8
0
  6
Continuous
 62
     2
370
    13
100
AcDbLine
 10
1907.549221422204
 20
241.2129297433966
 30
0.0
 11
1907.549221422204
 21
391.2129297433966
 31
0.0
  0
LINE
  5
2F6
330
1F
100
AcDbEntity
  8
0
  6
Continuous
 62
     2
370
    13
100
AcDbLine
 10
-212.4507785779823
 20
1736.212929743094
 30
0.0
 11
1827.549221422204
 21
1736.212929743094
 31
0.0
  0
LINE
  5
2F7
330
1F
100
AcDbEntity
  8
0
  6
Continuous
 62
     2
370
    13
100
AcDbLine
 10
1827.549221422204
 20
1736.212929743094
 30
0.0
 11
1827.549221422204
 21
-133.7870702569061
 31
0.0
  0
LINE
  5
2F8
330
1F
100
AcDbEntity
  8
0
  6
Continuous
 62
     2
370
    13
100
AcDbLine
 10
1827.549221422204
 20
-133.7870702569061
 30
0.0
 11
-212.4507785779823
 21
-133.7870702569061
 31
0.0
  0
LINE
  5
2F9
330
1F
100
AcDbEntity
  8
0
  6
Continuous
 62
     2
370
    13
100
AcDbLine
 10
-212.4507785779823
 20
-133.7870702569061
 30
0.0
 11
-212.4507785779823
 21
1736.212929743094
 31
0.0
  0
LINE
  5
2FA
330
1F
100
AcDbEntity
  8
0
  6
Continuous
 62
     2
370
    13
100
AcDbLine
 10
-291.4507785779823
 20
1361.212929743001
 30
0.0
 11
-242.4507785777961
 21
1361.212929743001
 31
0.0
  0
LINE
  5
2FB
330
1F
100
AcDbEntity
  8
0
  6
Continuous
 62
     2
370
    13
100
AcDbLine
 10
-291.4507785779823
 20
1211.212929743001
 30
0.0
 11
-242.4507785778892
 21
1211.212929743001
 31
0.0
  0
LINE
  5
2FC
330
1F
100
AcDbEntity
  8
0
  6
Continuous
 62
     2
370
    13
100
AcDbLine
 10
1734.022699095921
 20
-1438.857330806131
 30
0.0
 11
1720.549221422111
 21
-1438.857330806131
 31
0.0
  0
LINE
  5
2FD
330
1F
100
AcDbEntity
  8
0
  6
Continuous
 62
     2
370
    13
100
AcDbLine
 10
1857.549221422204
 20
811.8331545299698
 30
0.0
 11
1862.412224355766
 21
811.3102724200893
 31
0.0
  0
LINE
  5
2FE
330
1F
100
AcDbEntity
  8
0
  6
Continuous
 62
     2
370
    13
100
AcDbLine
 10
1857.549221422204
 20
790.5678104790939
 30
0.0
 11
1862.412224355766
 21
791.0340421069959
 31
0.0
  0
LINE
  5
2FF
330
1F
100
AcDbEntity
  8
0
  6
Continuous
 62
     2
370
    13
100
AcDbLine
 10
1830.749221422204
 20
-878.8573308061304
 30
0.0
 11
1418.883238024504
 21
-878.8573308061304
 31
0.0
  0
LINE
  5
300
330
1F
100
AcDbEntity
  8
0
  6
Continuous
 62
     2
370
    13
100
AcDbLine
 10
1827.549221422204
 20
-869.0573308061537
 30
0.0
 11
1827.549221422204
 21
-878.8573308061304
 31
0.0
  0
ARC
  5
301
330
1F
100
AcDbEntity
  8
0
  6
Continuous
 62
     2
370
    13
100
AcDbCircle
 10
1818.893596333877
 20
-1385.401844783426
 30
0.0
 40
2.35771681679762
100
AcDbArc
 50
90.0
 51
0.0
  0
ARC
  5
302
330
1F
100
AcDbEntity
  8
0
  6
Continuous
 62
     2
370
    13
100
AcDbCircle
 10
1878.912224355766
 20
801.2129297430008
 30
0.0
 40
11.17253212840296
100
AcDbArc
 50
90.0
 51
270.0
  0
ARC
  5
303
330
1F
100
AcDbEntity
  8
0
  6
Continuous
 62
     2
370
    13
100
AcDbCircle
 10
1827.549221422204
 20
801.2129297430008
 30
0.0
 40
10.88000000000466
100
AcDbArc
 50
90.0
 51
180.0
  0
ARC
  5
304
330
1F
100
AcDbEntity
  8
0
  6
Continuous
 62
     2
370
    13
100
AcDbCircle
 10
1827.549221422204
 20
801.2129297430008
 30
0.0
 40
10.88000000012107
100
AcDbArc
 50
180.0
 51
270.0
  0
CIRCLE
  5
305
330
1F
100
AcDbEntity
  8
0
  6
Continuous
 62
     2
370
    13
100
AcDbCircle
 10
-267.4507785777961
 20
1286.212929743001
 30
0.0
 40
8.0
  0
CIRCLE
  5
306
330
1F
100
AcDbEntity
  8
0
  6
Continuous
 62
     2
370
    13
100
AcDbCircle
 10
-267.4507785777961
 20
316.2129297418832
 30
0.0
 40
8.0
  0
CIRCLE
  5
307
330
1F
100
AcDbEntity
  8
0
  6
Continuous
 62
     2
370
    13
100
AcDbCircle
 10
1882.549221422204
 20
316.2129297418832
 30
0.0
 40
8.0
  0
CIRCLE
  5
308
330
1F
100
AcDbEntity
  8
0
  6
Continuous
 62
     2
370
    13
100
AcDbCircle
 10
1882.549221422204
 20
1286.212929743001
 30
0.0
 40
8.0
  0
CIRCLE
  5
309
330
1F
100
AcDbEntity
  8
0
  6
Continuous
 62
     2
370
    13
100
AcDbCircle
 10
307.549221422204
 20
1301.212929742884
 30
0.0
 40
3.999999999883585
  0
CIRCLE
  5
30A
330
1F
100
AcDbEntity
  8
0
  6
Continuous
 62
     2
370
    13
100
AcDbCircle
 10
307.549221422204
 20
301.2129297430008
 30
0.0
 40
3.999999999883585
  0
CIRCLE
  5
30B
330
1F
100
AcDbEntity
  8
0
  6
Continuous
 62
     2
370
    13
100
AcDbCircle
 10
1307.549221422204
 20
1301.212929742884
 30
0.0
 40
4.0
  0
CIRCLE
  5
30C
330
1F
100
AcDbEntity
  8
0
  6
Continuous
 62
     2
370
    13
100
AcDbCircle
 10
1307.549221422204
 20
301.2129297430008
 30
0.0
 40
4.0
  0
CIRCLE
  5
30D
330
1F
100
AcDbEntity
  8
0
  6
Continuous
 62
     2
370
    13
100
AcDbCircle
 10
1307.549221422204
 20
1301.212929743001
 30
0.0
 40
4.0
  0
CIRCLE
  5
30E
330
1F
100
AcDbEntity
  8
0
  6
Continuous
 62
     2
370
    13
100
AcDbCircle
 10
307.549221422204
 20
1301.212929743001
 30
0.0
 40
3.999999999883585
  0
SPLINE
  5
30F
330
1F
100
AcDbEntity
  8
0
  6
Continuous
 62
     2
370
    13
100
AcDbSpline
210
0.0
220
0.0
230
1.0
 70
     8
 71
     3
 72
    11
 73
     7
 74
     0
 42
0.000000001
 43
0.0000000001
 40
0.0
 40
0.0
 40
0.0
 40
0.0
 40
155.2844588080527
 40
270.1572386867557
 40
415.3756770644791
 40
550.0423292052321
 40
550.0423292052321
 40
550.0423292052321
 40
550.0423292052321
 10
1164.842735249137
 20
-1363.857330806131
 30
0.0
 10
1228.58645730294
 20
-1331.619509356838
 30
0.0
 10
1062.077474031371
 20
-1204.749439034817
 30
0.0
 10
1273.170598659345
 20
-1200.145788385832
 30
0.0
 10
1410.130443728023
 20
-1201.985875360548
 30
0.0
 10
1421.743627837633
 20
-1326.378245387735
 30
0.0
 10
1427.490667063889
 20
-1363.857330806131
 30
0.0
  0
SPLINE
  5
310
330
1F
100
AcDbEntity
  8
0
  6
Continuous
 62
     2
370
    13
100
AcDbSpline
210
0.0
220
0.0
230
1.0
 70
     8
 71
     3
 72
    11
 73
     7
 74
     0
 42
0.000000001
 43
0.0000000001
 40
0.0
 40
0.0
 40
0.0
 40
0.0
 40
183.0135552750123
 40
230.8578652652302
 40
293.2087958542006
 40
478.0017106912912
 40
478.0017106912912
 40
478.0017106912912
 40
478.0017106912912
 10
1426.172451022041
 20
-863.8573308061304
 30
0.0
 10
1379.759161819664
 20
-942.081444944647
 30
0.0
 10
1654.085585268826
 20
-988.3330217577247
 30
0.0
 10
1406.768733798673
 20
-1191.664528509948
 30
0.0
 10
1581.747666893208
 20
-1289.823767887727
 30
0.0
 10
1609.03083636766
 20
-1327.317303726562
 30
0.0
 10
1669.457966395986
 20
-1363.857330806131
 30
0.0
  0
SPLINE
  5
311
330
1F
100
AcDbEntity
  8
0
  6
Continuous
 62
     2
370
    13
100
AcDbSpline
210
0.0
220
0.0
230
1.0
 70
     8
 71
     3
 72
     8
 73
     4
 74
     0
 42
0.000000001
 43
0.0000000001
 40
0.0
 40
0.0
 40
0.0
 40
0.0
 40
55.18113899174325
 40
55.18113899174325
 40
55.18113899174325
 40
55.18113899174325
 10
1735.150911234
 20
-1363.857330806131
 30
0.0
 10
1751.093771769812
 20
-1389.378907237128
 30
0.0
 10
1723.069272485894
 20
-1422.601130575124
 30
0.0
 10
1734.022699095921
 20
-1438.857330806131
 30
0.0
  0
ARC
  5
312
330
1F
100
AcDbEntity
  8
0
  6
Continuous
 62
     2
370
    13
100
AcDbCircle
 10
1365.127364017775
 20
-1355.657330806037
 30
0.0
 40
4.999999999945569
100
AcDbArc
 50
185.0000000009279
 51
270.0
  0
ARC
  5
313
330
1F
100
AcDbEntity
  8
0
  6
Continuous
 62
     2
370
    13
100
AcDbCircle
 10
1219.971078826168
 20
-1355.657330806037
 30
0.0
 40
5.0
100
AcDbArc
 50
270.0
 51
354.9999999990721
  0
ARC
  5
314
330
1F
100
AcDbEntity
  8
0
  6
Continuous
 62
     2
370
    13
100
AcDbCircle
 10
1345.389422956069
 20
-1302.157330806037
 30
0.0
 40
9.999999999994428
100
AcDbArc
 50
5.000000000039204
 51
90.0
  0
ARC
  5
315
330
1F
100
AcDbEntity
  8
0
  6
Continuous
 62
     2
370
    13
100
AcDbCircle
 10
1239.709019887873
 20
-1302.157330806037
 30
0.0
 40
10.0
100
AcDbArc
 50
90.0
 51
174.9999999999608
  0
ARC
  5
316
330
1F
100
AcDbEntity
  8
0
  6
Continuous
 62
     2
370
    13
100
AcDbCircle
 10
1813.982624288329
 20
-1390.312816828928
 30
0.0
 40
17.77777777775191
100
AcDbArc
 50
180.0
 51
270.0
  0
ARC
  5
317
330
1F
100
AcDbEntity
  8
0
  6
Continuous
 62
     2
370
    13
100
AcDbCircle
 10
-237.2507785778892
 20
-869.0573308061537
 30
0.0
 40
5.200000000011642
100
AcDbArc
 50
90.0
 51
180.0
  0
ARC
  5
318
330
1F
100
AcDbEntity
  8
0
  6
Continuous
 62
     2
370
    13
100
AcDbCircle
 10
1852.349221422018
 20
-869.0573308061537
 30
0.0
 40
5.199999999953434
100
AcDbArc
 50
0.0
 51
90.0
  0
ARC
  5
319
330
1F
100
AcDbEntity
  8
0
  6
Continuous
 62
     2
370
    13
100
AcDbCircle
 10
1832.749221422111
 20
-869.0573308061537
 30
0.0
 40
5.200000000011642
100
AcDbArc
 50
90.0
 51
180.0
  0
TEXT
  5
31A
330
1F
100
AcDbEntity
  8
0
 62
     2
100
AcDbText
 10
-3043.52975862445
 20
-459.1673841931749
 30
0.0
 40
72.0
  1
耐震条件
 41
0.9739130434782615
  7
dcStyle0
 72
     5
 11
-2813.12975862445
 21
-459.1673841931749
 31
0.0
100
AcDbText
  0
TEXT
  5
31B
330
1F
100
AcDbEntity
  8
0
 62
     2
100
AcDbText
 10
-2590.655134559931
 20
-149.6789650396099
 30
0.0
 40
64.0
  1
ステンレス製六角ボルト（Ｍ２０ｘ５０）　　　４個
 41
0.9398601398601392
  7
dcStyle0
 72
     5
 11
-1361.855134559931
 21
-149.6789650396099
 31
0.0
100
AcDbText
  0
TEXT
  5
31C
330
1F
100
AcDbEntity
  8
0
 62
     2
100
AcDbText
 10
-1539.048993403159
 20
1009.013553701708
 30
0.0
 40
48.0
  1
６
 41
1.120000000000003
  7
dcStyle0
 72
     5
 11
-1500.648993403159
 21
1009.013553701708
 31
0.0
100
AcDbText
  0
TEXT
  5
31D
330
1F
100
AcDbEntity
  8
0
 62
     2
100
AcDbText
 10
-2068.977275961699
 20
958.845880379009
 30
0.0
 40
56.0
  1
（５００－6.4）／１０
 41
0.9645933014354074
  7
dcStyle0
 72
     5
 11
-1531.377275961699
 21
958.845880379009
 31
0.0
100
AcDbText
  0
TEXT
  5
31E
330
1F
100
AcDbEntity
  8
0
 62
     2
100
AcDbText
 10
-2591.897790546476
 20
-459.1673841931749
 30
0.0
 40
64.0
  1
耐震設計震度　１．０以下
 41
0.946478873239437
  7
dcStyle0
 72
     5
 11
-1977.497790546476
 21
-459.1673841931749
 31
0.0
100
AcDbText
  0
TEXT
  5
31F
330
1F
100
AcDbEntity
  8
0
 62
     2
100
AcDbText
 10
-3066.565042151271
 20
-199.9824146329332
 30
0.0
 40
72.0
  1
付属部品
 41
0.9739130434782615
  7
dcStyle0
 72
     5
 11
-2836.165042151271
 21
-199.9824146329332
 31
0.0
100
AcDbText
  0
TEXT
  5
320
330
1F
100
AcDbEntity
  8
0
 62
     2
100
AcDbText
 10
-2591.897790546476
 20
468.9614135896845
 30
0.0
 40
64.0
  1
Ｍ２０ボルト
 41
0.9599999999999994
  7
dcStyle0
 72
     5
 11
-2284.697790546476
 21
468.9614135896845
 31
0.0
100
AcDbText
  0
TEXT
  5
321
330
1F
100
AcDbEntity
  8
0
 62
     2
100
AcDbText
 10
-3066.565042151271
 20
458.4992849467387
 30
0.0
 40
72.0
  1
タンク固定
 41
0.9655172413793104
  7
dcStyle0
 72
     5
 11
-2778.565042151271
 21
458.4992849467387
 31
0.0
100
AcDbText
  0
TEXT
  5
322
330
1F
100
AcDbEntity
  8
0
 62
     2
100
AcDbText
 10
-2591.897790546476
 20
282.6421750126457
 30
0.0
 40
64.0
  1
ネジ径　Ｒｃ１／２（黄銅製ボ－ルバルブ付）
 41
0.9407999999999994
  7
dcStyle0
 72
     5
 11
-1516.697790546477
 21
282.6421750126457
 31
0.0
100
AcDbText
  0
TEXT
  5
323
330
1F
100
AcDbEntity
  8
0
 62
     2
100
AcDbText
 10
-2591.897790546476
 20
38.52370897364445
 30
0.0
 40
64.0
  1
３４０ｋｇ
 41
0.9655172413793105
  7
dcStyle0
 72
     5
 11
-2335.897790546476
 21
38.52370897364445
 31
0.0
100
AcDbText
  0
TEXT
  5
324
330
1F
100
AcDbEntity
  8
0
 62
     2
100
AcDbText
 10
-2591.897790546476
 20
159.8185351772298
 30
0.0
 40
64.0
  1
粉体塗装：ライトベージュ２１
 41
0.9445783132530118
  7
dcStyle0
 72
     5
 11
-1875.097790546477
 21
159.8185351772298
 31
0.0
100
AcDbText
  0
TEXT
  5
325
330
1F
100
AcDbEntity
  8
0
 62
     2
100
AcDbText
 10
-2939.257385176045
 20
640.3303081142767
 30
0.0
 40
72.0
  1
架　台
 41
0.9882352941176482
  7
dcStyle0
 72
     5
 11
-2766.457385176045
 21
640.3303081142767
 31
0.0
100
AcDbText
  0
TEXT
  5
326
330
1F
100
AcDbEntity
  8
0
 62
     2
100
AcDbText
 10
-2591.897790546476
 20
770.0499976531552
 30
0.0
 40
64.0
  1
鋼板　ｔ３．２
 41
0.9560975609756088
  7
dcStyle0
 72
     5
 11
-2233.497790546477
 21
770.0499976531552
 31
0.0
100
AcDbText
  0
TEXT
  5
327
330
1F
100
AcDbEntity
  8
0
 62
     2
100
AcDbText
 10
-3066.565042151271
 20
30.56553946864434
 30
0.0
 40
72.0
  1
完成重量
 41
0.9739130434782615
  7
dcStyle0
 72
     5
 11
-2836.165042151271
 21
30.56553946864434
 31
0.0
100
AcDbText
  0
TEXT
  5
328
330
1F
100
AcDbEntity
  8
0
 62
     2
100
AcDbText
 10
-3066.565042151271
 20
160.5636710202379
 30
0.0
 40
72.0
  1
表面処理
 41
0.9739130434782615
  7
dcStyle0
 72
     5
 11
-2836.165042151271
 21
160.5636710202379
 31
0.0
100
AcDbText
  0
TEXT
  5
329
330
1F
100
AcDbEntity
  8
0
 62
     2
100
AcDbText
 10
-3066.565042151271
 20
285.8421750126457
 30
0.0
 40
72.0
  1
水抜口
 41
0.9882352941176482
  7
dcStyle0
 72
     5
 11
-2893.765042151271
 21
285.8421750126457
 31
0.0
100
AcDbText
  0
TEXT
  5
32A
330
1F
100
AcDbEntity
  8
0
 62
     2
100
AcDbText
 10
-2941.0028397215
 20
770.0499976531552
 30
0.0
 40
72.0
  1
本　体
 41
0.9882352941176457
  7
dcStyle0
 72
     5
 11
-2768.2028397215
 21
770.0499976531552
 31
0.0
100
AcDbText
  0
TEXT
  5
32B
330
1F
100
AcDbEntity
  8
0
 62
     2
100
AcDbText
 10
-2591.897790546476
 20
1228.368926046744
 30
0.0
 40
72.0
  1
1987Ｌ
 41
0.8842105263157894
  7
dcStyle0
 72
     5
 11
-2303.897790546476
 21
1228.368926046744
 31
0.0
100
AcDbText
  0
TEXT
  5
32C
330
1F
100
AcDbEntity
  8
0
 62
     2
100
AcDbText
 10
-3066.430706782399
 20
1209.525959710729
 30
0.0
 40
72.0
  1
容　　量
 41
0.9739130434782615
  7
dcStyle0
 72
     5
 11
-2836.030706782399
 21
1209.525959710729
 31
0.0
100
AcDbText
  0
TEXT
  5
32D
330
1F
100
AcDbEntity
  8
0
 62
     2
100
AcDbText
 10
-3066.565042151271
 20
1400.968609621331
 30
0.0
 40
72.0
  1
型　　式
 41
0.9739130434782615
  7
dcStyle0
 72
     5
 11
-2836.165042151271
 21
1400.968609621331
 31
0.0
100
AcDbText
  0
TEXT
  5
32E
330
1F
100
AcDbEntity
  8
0
 62
     2
100
AcDbText
 10
-2591.897790546476
 20
-771.200554086679
 30
0.0
 40
64.0
  1
ＹＶ－１９００Ｇ1　ＹＶ－１９００ＲＧ1
 41
0.9464788732394366
  7
dcStyle0
 72
     5
 11
-1567.897790546476
 21
-771.200554086679
 31
0.0
100
AcDbText
  0
TEXT
  5
32F
330
1F
100
AcDbEntity
  8
0
 62
     2
100
AcDbText
 10
-3043.52975862445
 20
-771.2005540866788
 30
0.0
 40
72.0
  1
適用タンク
 41
0.9655172413793104
  7
dcStyle0
 72
     5
 11
-2755.52975862445
 21
-771.2005540866788
 31
0.0
100
AcDbText
  0
TEXT
  5
330
330
1F
100
AcDbEntity
  8
0
 62
     2
100
AcDbText
 10
-3097.712968165933
 20
764.8610484019788
 30
0.0
 40
72.0
  1
材
 41
1.119999999999998
  7
dcStyle0
 72
     5
 11
-3040.112968165934
 21
764.8610484019788
 31
0.0
100
AcDbText
  0
TEXT
  5
331
330
1F
100
AcDbEntity
  8
0
 62
     2
100
AcDbText
 10
-3097.712968165933
 20
624.923177044926
 30
0.0
 40
72.0
  1
料
 41
1.119999999999998
  7
dcStyle0
 72
     5
 11
-3040.112968165934
 21
624.923177044926
 31
0.0
100
AcDbText
  0
TEXT
  5
332
330
1F
100
AcDbEntity
  8
0
 62
     2
100
AcDbText
 10
-2568.383117098867
 20
1084.680423027746
 30
0.0
 40
56.0
  1
＝（２１００－６．４）×（１９３０－６．４）×
 41
0.9401459854014605
  7
dcStyle0
 72
     5
 11
-1537.983117098866
 21
1084.680423027746
 31
0.0
100
AcDbText
  0
TEXT
  5
333
330
1F
100
AcDbEntity
  8
0
 62
     2
100
AcDbText
 10
-2971.802928478776
 20
-1096.59953394665
 30
0.0
 40
72.0
  1
株式会社
 41
1.606956521739132
  7
dcStyle0
 72
     5
 11
-2591.642928478776
 21
-1096.59953394665
 31
0.0
100
AcDbText
  0
TEXT
  5
334
330
1F
100
AcDbEntity
  8
0
 62
     2
100
AcDbText
 10
-2591.897790546476
 20
642.0499976531552
 30
0.0
 40
64.0
  1
溝形鋼　Ｃ１５０ｘ７５ｘｔ６．５
 41
0.9431578947368419
  7
dcStyle0
 72
     5
 11
-1772.697790546476
 21
642.0499976531552
 31
0.0
100
AcDbText
  0
TEXT
  5
335
330
1F
100
AcDbEntity
  8
0
 62
     2
100
AcDbText
 10
-2593.140446533041
 20
-270.876538290874
 30
0.0
 40
64.0
  1
ステンレス製平座金　　　　　　　　　　　　　４個
 41
0.9398601398601392
  7
dcStyle0
 72
     5
 11
-1364.340446533041
 21
-270.876538290874
 31
0.0
100
AcDbText
  0
TEXT
  5
336
330
1F
100
AcDbEntity
  8
0
 62
     2
100
AcDbText
 10
-2595.193419670508
 20
-615.1839691399266
 30
0.0
 40
64.0
  1
あと施工接着式　Ｍ20深さ120ｍｍ以上
 41
0.9155313351498636
  7
dcStyle0
 72
     5
 11
-1571.193419670508
 21
-615.1839691399266
 31
0.0
100
AcDbText
  0
TEXT
  5
337
330
1F
100
AcDbEntity
  8
0
 62
     2
100
AcDbText
 10
-3043.52975862445
 20
-615.1839691399266
 30
0.0
 40
72.0
  1
基礎ボルト
 41
0.9655172413793104
  7
dcStyle0
 72
     5
 11
-2755.52975862445
 21
-615.1839691399266
 31
0.0
100
AcDbText
  0
TEXT
  5
339
330
1F
100
AcDbEntity
  8
0
 62
     2
100
AcDbText
 10
-2110.485510131219
 20
2121.956330468852
 30
0.0
 40
313.456656384
  1
サンダイヤ　防油堤　仕様書
 41
0.625
  7
dcStyle1
 72
     5
 11
1149.463716262382
 21
2121.956330468852
 31
0.0
100
AcDbText
  0
TEXT
  5
33A
330
1F
100
AcDbEntity
  8
0
 62
     2
100
AcDbText
 10
-2567.539099463265
 20
1406.541914117882
 30
0.0
 40
90.69926399999999
  1
ＨＡ１９－２１１９Ｇ
 41
0.6249999999999997
  7
dcStyle1
 72
     5
 11
-1841.944987463265
 21
1406.541914117882
 31
0.0
100
AcDbText
  0
TEXT
  5
33B
330
1F
100
AcDbEntity
  8
0
 62
     2
100
AcDbText
 10
808.9450767479129
 20
-1822.117062888435
 30
0.0
 40
71.99999999999996
  1
Ｊ2275-1
 41
0.8711111111111108
  7
dcStyle0
 72
     5
 11
1212.145076747913
 21
-1822.117062888435
 31
0.0
100
AcDbText
  0
TEXT
  5
33C
330
1F
100
AcDbEntity
  8
0
 62
     2
100
AcDbText
 10
1809.493788288559
 20
-1822.117062888435
 30
0.0
 40
71.99999999999996
  1
98616-95305-11
 41
0.8310954063604236
  7
dcStyle0
 72
     5
 11
2615.893788288558
 21
-1822.117062888435
 31
0.0
100
AcDbText
  0
LINE
  5
33D
330
1F
100
AcDbEntity
  8
0
  6
DASHED2
 62
     3
370
    13
100
AcDbLine
 10
-242.4507785777961
 20
381.2129297430008
 30
0.0
 11
1857.549221422204
 21
381.2129297430008
 31
0.0
  0
LINE
  5
33E
330
1F
100
AcDbEntity
  8
0
  6
DASHED2
 62
     3
370
    13
100
AcDbLine
 10
1857.549221422297
 20
251.2129297428844
 30
0.0
 11
-242.4507785777961
 21
251.2129297428844
 31
0.0
  0
LINE
  5
33F
330
1F
100
AcDbEntity
  8
0
  6
DASHED2
 62
     3
370
    13
100
AcDbLine
 10
1857.549221422297
 20
251.2129297428844
 30
0.0
 11
-242.4507785777961
 21
251.2129297428844
 31
0.0
  0
LINE
  5
340
330
1F
100
AcDbEntity
  8
0
  6
DASHED2
 62
     3
370
    13
100
AcDbLine
 10
387.549221422204
 20
1356.212929743001
 30
0.0
 11
257.5492214221109
 21
1356.212929743001
 31
0.0
  0
LINE
  5
341
330
1F
100
AcDbEntity
  8
0
  6
DASHED2
 62
     3
370
    13
100
AcDbLine
 10
257.5492214221109
 20
1353.012929742978
 30
0.0
 11
387.549221422204
 21
1353.012929742978
 31
0.0
  0
LINE
  5
342
330
1F
100
AcDbEntity
  8
0
  6
DASHED2
 62
     3
370
    13
100
AcDbLine
 10
387.549221422204
 20
1219.412929742977
 30
0.0
 11
257.5492214221109
 21
1219.412929742977
 31
0.0
  0
LINE
  5
343
330
1F
100
AcDbEntity
  8
0
  6
DASHED2
 62
     3
370
    13
100
AcDbLine
 10
257.5492214221109
 20
1216.212929743001
 30
0.0
 11
387.549221422204
 21
1216.212929743001
 31
0.0
  0
LINE
  5
344
330
1F
100
AcDbEntity
  8
0
  6
DASHED2
 62
     3
370
    13
100
AcDbLine
 10
1227.549221422204
 20
1353.012929742978
 30
0.0
 11
1357.549221422297
 21
1353.012929742978
 31
0.0
  0
LINE
  5
345
330
1F
100
AcDbEntity
  8
0
  6
DASHED2
 62
     3
370
    13
100
AcDbLine
 10
1357.549221422297
 20
1356.212929743001
 30
0.0
 11
1227.549221422204
 21
1356.212929743001
 31
0.0
  0
LINE
  5
346
330
1F
100
AcDbEntity
  8
0
  6
DASHED2
 62
     3
370
    13
100
AcDbLine
 10
1227.549221422204
 20
1216.212929743001
 30
0.0
 11
1357.549221422297
 21
1216.212929743001
 31
0.0
  0
LINE
  5
347
330
1F
100
AcDbEntity
  8
0
  6
DASHED2
 62
     3
370
    13
100
AcDbLine
 10
1357.549221422297
 20
1219.412929742977
 30
0.0
 11
1227.549221422204
 21
1219.412929742977
 31
0.0
  0
LINE
  5
348
330
1F
100
AcDbEntity
  8
0
  6
DASHED2
 62
     3
370
    13
100
AcDbLine
 10
387.549221422204
 20
249.4129297429775
 30
0.0
 11
257.5492214221109
 21
249.4129297429775
 31
0.0
  0
LINE
  5
349
330
1F
100
AcDbEntity
  8
0
  6
DASHED2
 62
     3
370
    13
100
AcDbLine
 10
257.5492214221109
 20
246.2129297430008
 30
0.0
 11
387.549221422204
 21
246.2129297430008
 31
0.0
  0
LINE
  5
34A
330
1F
100
AcDbEntity
  8
0
  6
DASHED2
 62
     3
370
    13
100
AcDbLine
 10
387.549221422204
 20
386.2129297430008
 30
0.0
 11
257.5492214221109
 21
386.2129297430008
 31
0.0
  0
LINE
  5
34B
330
1F
100
AcDbEntity
  8
0
  6
DASHED2
 62
     3
370
    13
100
AcDbLine
 10
257.5492214221109
 20
383.0129297429776
 30
0.0
 11
387.549221422204
 21
383.0129297429776
 31
0.0
  0
LINE
  5
34C
330
1F
100
AcDbEntity
  8
0
  6
DASHED2
 62
     3
370
    13
100
AcDbLine
 10
1227.549221422204
 20
246.2129297430008
 30
0.0
 11
1357.549221422297
 21
246.2129297430008
 31
0.0
  0
LINE
  5
34D
330
1F
100
AcDbEntity
  8
0
  6
DASHED2
 62
     3
370
    13
100
AcDbLine
 10
1357.549221422297
 20
249.4129297429775
 30
0.0
 11
1227.549221422204
 21
249.4129297429775
 31
0.0
  0
LINE
  5
34E
330
1F
100
AcDbEntity
  8
0
  6
DASHED2
 62
     3
370
    13
100
AcDbLine
 10
1227.549221422204
 20
383.0129297429776
 30
0.0
 11
1357.549221422297
 21
383.0129297429776
 31
0.0
  0
LINE
  5
34F
330
1F
100
AcDbEntity
  8
0
  6
DASHED2
 62
     3
370
    13
100
AcDbLine
 10
1357.549221422297
 20
386.2129297430008
 30
0.0
 11
1227.549221422204
 21
386.2129297430008
 31
0.0
  0
LINE
  5
350
330
1F
100
AcDbEntity
  8
0
  6
DASHED2
 62
     3
370
    13
100
AcDbLine
 10
395.1273640183333
 20
-1360.657330806154
 30
0.0
 11
397.5492214224834
 21
-1360.657330806154
 31
0.0
  0
LINE
  5
351
330
1F
100
AcDbEntity
  8
0
  6
DASHED2
 62
     3
370
    13
100
AcDbLine
 10
249.9710788266335
 20
-1360.657330806154
 30
0.0
 11
247.5492214224834
 21
-1360.657330806154
 31
0.0
  0
LINE
  5
352
330
1F
100
AcDbEntity
  8
0
  6
DASHED2
 62
     3
370
    13
100
AcDbLine
 10
375.3894229565349
 20
-1292.157330806154
 30
0.0
 11
269.7090198883388
 21
-1292.157330806154
 31
0.0
  0
LINE
  5
353
330
1F
100
AcDbEntity
  8
0
  6
DASHED2
 62
     3
370
    13
100
AcDbLine
 10
390.1463905279126
 20
-1356.093109519939
 30
0.0
 11
385.3513699374694
 21
-1301.28577337863
 31
0.0
  0
LINE
  5
354
330
1F
100
AcDbEntity
  8
0
  6
DASHED2
 62
     3
370
    13
100
AcDbLine
 10
254.9520523170542
 20
-1356.093109519939
 30
0.0
 11
259.7470729074973
 21
-1301.28577337863
 31
0.0
  0
LINE
  5
355
330
1F
100
AcDbEntity
  8
0
  6
DASHED2
 62
     3
370
    13
100
AcDbLine
 10
397.5492214224834
 20
-1285.657330806154
 30
0.0
 11
247.5492214224834
 21
-1285.657330806154
 31
0.0
  0
LINE
  5
356
330
1F
100
AcDbEntity
  8
0
  6
DASHED2
 62
     3
370
    13
100
AcDbLine
 10
397.5492214224834
 20
-1360.657330806154
 30
0.0
 11
397.5492214224834
 21
-1285.657330806154
 31
0.0
  0
LINE
  5
357
330
1F
100
AcDbEntity
  8
0
  6
DASHED2
 62
     3
370
    13
100
AcDbLine
 10
247.5492214224834
 20
-1360.657330806154
 30
0.0
 11
247.5492214224834
 21
-1285.657330806154
 31
0.0
  0
LINE
  5
358
330
1F
100
AcDbEntity
  8
0
  6
DASHED2
 62
     3
370
    13
100
AcDbLine
 10
307.549221422204
 20
-1317.532330806037
 30
0.0
 11
307.549221422204
 21
-1287.082330806131
 31
0.0
  0
LINE
  5
359
330
1F
100
AcDbEntity
  8
0
  6
DASHED2
 62
     3
370
    13
100
AcDbLine
 10
316.2094754600499
 20
-1311.11758484393
 30
0.0
 11
316.2094754600499
 21
-1292.157330806154
 31
0.0
  0
LINE
  5
35A
330
1F
100
AcDbEntity
  8
0
  6
DASHED2
 62
     3
370
    13
100
AcDbLine
 10
298.8889673843582
 20
-1311.11758484393
 30
0.0
 11
298.8889673843582
 21
-1292.157330806154
 31
0.0
  0
LINE
  5
35B
330
1F
100
AcDbEntity
  8
0
  6
DASHED2
 62
     3
370
    13
100
AcDbLine
 10
290.2287133466053
 20
-1292.157330806154
 30
0.0
 11
290.2287133466053
 21
-1311.11758484393
 31
0.0
  0
LINE
  5
35C
330
1F
100
AcDbEntity
  8
0
  6
DASHED2
 62
     3
370
    13
100
AcDbLine
 10
290.2287133466053
 20
-1311.11758484393
 30
0.0
 11
292.549221422204
 21
-1312.457330806131
 31
0.0
  0
LINE
  5
35D
330
1F
100
AcDbEntity
  8
0
  6
DASHED2
 62
     3
370
    13
100
AcDbLine
 10
292.549221422204
 20
-1312.457330806131
 30
0.0
 11
322.549221422204
 21
-1312.457330806131
 31
0.0
  0
LINE
  5
35E
330
1F
100
AcDbEntity
  8
0
  6
DASHED2
 62
     3
370
    13
100
AcDbLine
 10
322.549221422204
 20
-1312.457330806131
 30
0.0
 11
324.8697294978957
 21
-1311.11758484393
 31
0.0
  0
LINE
  5
35F
330
1F
100
AcDbEntity
  8
0
  6
DASHED2
 62
     3
370
    13
100
AcDbLine
 10
324.8697294978957
 20
-1311.11758484393
 30
0.0
 11
324.8697294978957
 21
-1293.497076768238
 31
0.0
  0
LINE
  5
360
330
1F
100
AcDbEntity
  8
0
  6
DASHED2
 62
     3
370
    13
100
AcDbLine
 10
324.8697294978957
 20
-1293.497076768238
 30
0.0
 11
324.8697294978957
 21
-1292.157330806154
 31
0.0
  0
LINE
  5
361
330
1F
100
AcDbEntity
  8
0
  6
DASHED2
 62
     3
370
    13
100
AcDbLine
 10
324.8697294978957
 20
-1292.157330806154
 30
0.0
 11
290.2287133466053
 21
-1292.157330806154
 31
0.0
  0
LINE
  5
362
330
1F
100
AcDbEntity
  8
0
  6
DASHED2
 62
     3
370
    13
100
AcDbLine
 10
1324.869729497896
 20
-1292.157330806037
 30
0.0
 11
1290.228713346605
 21
-1292.157330806037
 31
0.0
  0
LINE
  5
363
330
1F
100
AcDbEntity
  8
0
  6
DASHED2
 62
     3
370
    13
100
AcDbLine
 10
1290.228713346605
 20
-1292.157330806037
 30
0.0
 11
1290.228713346605
 21
-1293.497076768145
 31
0.0
  0
LINE
  5
364
330
1F
100
AcDbEntity
  8
0
  6
DASHED2
 62
     3
370
    13
100
AcDbLine
 10
1290.228713346605
 20
-1293.497076768145
 30
0.0
 11
1290.228713346605
 21
-1311.117584843837
 31
0.0
  0
LINE
  5
365
330
1F
100
AcDbEntity
  8
0
  6
DASHED2
 62
     3
370
    13
100
AcDbLine
 10
1290.228713346605
 20
-1311.117584843837
 30
0.0
 11
1292.549221422204
 21
-1312.457330806061
 31
0.0
  0
LINE
  5
366
330
1F
100
AcDbEntity
  8
0
  6
DASHED2
 62
     3
370
    13
100
AcDbLine
 10
1292.549221422204
 20
-1312.457330806061
 30
0.0
 11
1322.549221422204
 21
-1312.457330806061
 31
0.0
  0
LINE
  5
367
330
1F
100
AcDbEntity
  8
0
  6
DASHED2
 62
     3
370
    13
100
AcDbLine
 10
1322.549221422204
 20
-1312.457330806061
 30
0.0
 11
1324.869729497896
 21
-1311.117584843837
 31
0.0
  0
LINE
  5
368
330
1F
100
AcDbEntity
  8
0
  6
DASHED2
 62
     3
370
    13
100
AcDbLine
 10
1324.869729497896
 20
-1311.117584843837
 30
0.0
 11
1324.869729497896
 21
-1292.157330806037
 31
0.0
  0
LINE
  5
369
330
1F
100
AcDbEntity
  8
0
  6
DASHED2
 62
     3
370
    13
100
AcDbLine
 10
1316.20947546005
 20
-1292.157330806037
 30
0.0
 11
1316.20947546005
 21
-1311.117584843837
 31
0.0
  0
LINE
  5
36A
330
1F
100
AcDbEntity
  8
0
  6
DASHED2
 62
     3
370
    13
100
AcDbLine
 10
1298.888967384358
 20
-1292.157330806037
 30
0.0
 11
1298.888967384358
 21
-1311.117584843837
 31
0.0
  0
LINE
  5
36B
330
1F
100
AcDbEntity
  8
0
  6
DASHED2
 62
     3
370
    13
100
AcDbLine
 10
1307.549221422204
 20
-1287.082330806061
 30
0.0
 11
1307.549221422204
 21
-1317.532330806037
 31
0.0
  0
LINE
  5
36C
330
1F
100
AcDbEntity
  8
0
  6
DASHED2
 62
     3
370
    13
100
AcDbLine
 10
257.5492214221109
 20
391.2129297430939
 30
0.0
 11
257.5492214221109
 21
241.2129297430939
 31
0.0
  0
LINE
  5
36D
330
1F
100
AcDbEntity
  8
0
  6
DASHED2
 62
     3
370
    13
100
AcDbLine
 10
387.549221422204
 20
241.2129297430939
 30
0.0
 11
387.549221422204
 21
391.2129297430939
 31
0.0
  0
LINE
  5
36E
330
1F
100
AcDbEntity
  8
0
  6
DASHED2
 62
     3
370
    13
100
AcDbLine
 10
1357.549221422297
 20
241.2129297430939
 30
0.0
 11
1357.549221422297
 21
391.2129297430939
 31
0.0
  0
LINE
  5
36F
330
1F
100
AcDbEntity
  8
0
  6
DASHED2
 62
     3
370
    13
100
AcDbLine
 10
1227.549221422204
 20
391.2129297430939
 30
0.0
 11
1227.549221422204
 21
241.2129297430939
 31
0.0
  0
LINE
  5
370
330
1F
100
AcDbEntity
  8
0
  6
DASHED2
 62
     3
370
    13
100
AcDbLine
 10
1357.549221422297
 20
1211.212929742884
 30
0.0
 11
1357.549221422297
 21
1361.212929742885
 31
0.0
  0
LINE
  5
371
330
1F
100
AcDbEntity
  8
0
  6
DASHED2
 62
     3
370
    13
100
AcDbLine
 10
1227.549221422204
 20
1361.212929742885
 30
0.0
 11
1227.549221422204
 21
1211.212929742884
 31
0.0
  0
LINE
  5
372
330
1F
100
AcDbEntity
  8
0
  6
DASHED2
 62
     3
370
    13
100
AcDbLine
 10
387.549221422204
 20
1211.212929742884
 30
0.0
 11
387.549221422204
 21
1361.212929742885
 31
0.0
  0
LINE
  5
373
330
1F
100
AcDbEntity
  8
0
  6
DASHED2
 62
     3
370
    13
100
AcDbLine
 10
257.5492214221109
 20
1361.212929742885
 30
0.0
 11
257.5492214221109
 21
1211.212929742884
 31
0.0
  0
LINE
  5
374
330
1F
100
AcDbEntity
  8
0
  6
DASHED2
 62
     3
370
    13
100
AcDbLine
 10
-242.4507785777961
 20
1351.212929743094
 30
0.0
 11
1857.549221422297
 21
1351.212929743094
 31
0.0
  0
LINE
  5
375
330
1F
100
AcDbEntity
  8
0
  6
DASHED2
 62
     3
370
    13
100
AcDbLine
 10
1857.549221422204
 20
1211.212929743001
 30
0.0
 11
-242.4507785778892
 21
1211.212929743001
 31
0.0
  0
LINE
  5
376
330
1F
100
AcDbEntity
  8
0
  6
DASHED2
 62
     3
370
    13
100
AcDbLine
 10
-287.9507785778892
 20
-1435.657330806154
 30
0.0
 11
-287.9507785778892
 21
-1438.657330806037
 31
0.0
  0
LINE
  5
377
330
1F
100
AcDbEntity
  8
0
  6
DASHED2
 62
     3
370
    13
100
AcDbLine
 10
-277.9507785777961
 20
-1435.657330806154
 30
0.0
 11
-277.9507785777961
 21
-1438.657330806037
 31
0.0
  0
LINE
  5
378
330
1F
100
AcDbEntity
  8
0
  6
DASHED2
 62
     3
370
    13
100
AcDbLine
 10
-299.9507785778892
 20
-1432.357330806131
 30
0.0
 11
1732.085511746777
 21
-1432.357330806131
 31
0.0
  0
LINE
  5
379
330
1F
100
AcDbEntity
  8
0
  6
DASHED2
 62
     3
370
    13
100
AcDbLine
 10
1857.549221422204
 20
241.2129297433966
 30
0.0
 11
-242.4507785777961
 21
241.2129297433966
 31
0.0
  0
LINE
  5
37A
330
1F
100
AcDbEntity
  8
0
  6
DASHED2
 62
     3
370
    13
100
AcDbLine
 10
1857.549221422204
 20
1361.212929743001
 30
0.0
 11
-242.4507785777961
 21
1361.212929743001
 31
0.0
  0
LINE
  5
37B
330
1F
100
AcDbEntity
  8
0
  6
DASHED2
 62
     3
370
    13
100
AcDbLine
 10
-242.4507785777029
 20
391.2129297433967
 30
0.0
 11
1857.549221422204
 21
391.2129297433967
 31
0.0
  0
LINE
  5
37C
330
1F
100
AcDbEntity
  8
0
  6
DASHED2
 62
     3
370
    13
100
AcDbLine
 10
-242.4507785777029
 20
391.2129297433967
 30
0.0
 11
237.5492214220177
 21
391.2129297433967
 31
0.0
  0
LINE
  5
37D
330
1F
100
AcDbEntity
  8
0
  6
DASHED2
 62
     3
370
    13
100
AcDbLine
 10
1857.549221422204
 20
1221.212929743001
 30
0.0
 11
-242.4507785777961
 21
1221.212929743001
 31
0.0
  0
ARC
  5
37E
330
1F
100
AcDbEntity
  8
0
  6
DASHED2
 62
     3
370
    13
100
AcDbCircle
 10
307.549221422204
 20
-1283.797076768261
 30
0.0
 40
28.66025403782401
100
AcDbArc
 50
252.412046226039
 51
287.587953773961
  0
ARC
  5
37F
330
1F
100
AcDbEntity
  8
0
  6
DASHED2
 62
     3
370
    13
100
AcDbCircle
 10
320.5396024790194
 20
-1304.789862561059
 30
0.0
 40
7.667468245100299
100
AcDbArc
 50
235.6157525306647
 51
304.3842474686174
  0
ARC
  5
380
330
1F
100
AcDbEntity
  8
0
  6
DASHED2
 62
     3
370
    13
100
AcDbCircle
 10
294.5588403654817
 20
-1304.78986256064
 30
0.0
 40
7.667468245370812
100
AcDbArc
 50
235.6157525331021
 51
304.3842474676159
  0
ARC
  5
381
330
1F
100
AcDbEntity
  8
0
  6
DASHED2
 62
     3
370
    13
100
AcDbCircle
 10
1320.539602479019
 20
-1304.789862560524
 30
0.0
 40
7.667468245460576
100
AcDbArc
 50
235.615752532507
 51
304.3842474667751
  0
ARC
  5
382
330
1F
100
AcDbEntity
  8
0
  6
DASHED2
 62
     3
370
    13
100
AcDbCircle
 10
1294.558840365482
 20
-1304.789862560943
 30
0.0
 40
7.667468245058572
100
AcDbArc
 50
235.6157525315054
 51
304.3842474692125
  0
ARC
  5
383
330
1F
100
AcDbEntity
  8
0
  6
DASHED2
 62
     3
370
    13
100
AcDbCircle
 10
1307.549221422204
 20
-1283.797076768145
 30
0.0
 40
28.66025403785175
100
AcDbArc
 50
252.4120462260566
 51
287.5879537739434
  0
ARC
  5
384
330
1F
100
AcDbEntity
  8
0
  6
DASHED2
 62
     3
370
    13
100
AcDbCircle
 10
1827.549221422204
 20
801.2129297430008
 30
0.0
 40
8.63244786960422
100
AcDbArc
 50
270.0
 51
90.0
  0
ARC
  5
385
330
1F
100
AcDbEntity
  8
0
  6
DASHED2
 62
     3
370
    13
100
AcDbCircle
 10
1827.549221422204
 20
801.2129297430008
 30
0.0
 40
10.88000000000466
100
AcDbArc
 50
270.0
 51
90.0
  0
ARC
  5
386
330
1F
100
AcDbEntity
  8
0
  6
DASHED2
 62
     3
370
    13
100
AcDbCircle
 10
375.3894229565348
 20
-1302.157330806154
 30
0.0
 40
9.999999999996962
100
AcDbArc
 50
5.00000000020532
 51
90.0
  0
ARC
  5
387
330
1F
100
AcDbEntity
  8
0
  6
DASHED2
 62
     3
370
    13
100
AcDbCircle
 10
269.7090198883388
 20
-1302.157330806154
 30
0.0
 40
10.0
100
AcDbArc
 50
90.0
 51
174.9999999997947
  0
ARC
  5
388
330
1F
100
AcDbEntity
  8
0
  6
DASHED2
 62
     3
370
    13
100
AcDbCircle
 10
395.1273640183333
 20
-1355.657330806154
 30
0.0
 40
4.999999999943032
100
AcDbArc
 50
185.0000000005957
 51
270.0
  0
ARC
  5
389
330
1F
100
AcDbEntity
  8
0
  6
DASHED2
 62
     3
370
    13
100
AcDbCircle
 10
249.9710788266335
 20
-1355.657330806154
 30
0.0
 40
5.0
100
AcDbArc
 50
270.0
 51
354.9999999994043
  0
LINE
  5
38A
330
1F
100
AcDbEntity
  8
0
  6
CENTER
 62
     3
370
    13
100
AcDbLine
 10
1311.149221422204
 20
301.2129297430008
 30
0.0
 11
1303.949221422297
 21
301.2129297430008
 31
0.0
  0
LINE
  5
38B
330
1F
100
AcDbEntity
  8
0
  6
CENTER
 62
     3
370
    13
100
AcDbLine
 10
1307.549221422204
 20
304.8129297430008
 30
0.0
 11
1307.549221422204
 21
297.6129297430008
 31
0.0
  0
LINE
  5
38C
330
1F
100
AcDbEntity
  8
0
  6
CENTER
 62
     3
370
    13
100
AcDbLine
 10
1312.349221422297
 20
301.2129297430008
 30
0.0
 11
1302.749221422204
 21
301.2129297430008
 31
0.0
  0
LINE
  5
38D
330
1F
100
AcDbEntity
  8
0
  6
CENTER
 62
     3
370
    13
100
AcDbLine
 10
1307.549221422204
 20
306.0129297429775
 30
0.0
 11
1307.549221422204
 21
296.4129297429776
 31
0.0
  0
LINE
  5
38E
330
1F
100
AcDbEntity
  8
0
  6
CENTER
 62
     3
370
    13
100
AcDbLine
 10
1303.949221422297
 20
1301.212929743001
 30
0.0
 11
1311.149221422204
 21
1301.212929743001
 31
0.0
  0
LINE
  5
38F
330
1F
100
AcDbEntity
  8
0
  6
CENTER
 62
     3
370
    13
100
AcDbLine
 10
1307.549221422204
 20
1304.812929743001
 30
0.0
 11
1307.549221422204
 21
1297.612929743001
 31
0.0
  0
LINE
  5
390
330
1F
100
AcDbEntity
  8
0
  6
CENTER
 62
     3
370
    13
100
AcDbLine
 10
1302.749221422204
 20
1301.212929743001
 30
0.0
 11
1312.349221422297
 21
1301.212929743001
 31
0.0
  0
LINE
  5
391
330
1F
100
AcDbEntity
  8
0
  6
CENTER
 62
     3
370
    13
100
AcDbLine
 10
1307.549221422204
 20
1306.012929742978
 30
0.0
 11
1307.549221422204
 21
1296.412929742977
 31
0.0
  0
LINE
  5
392
330
1F
100
AcDbEntity
  8
0
  6
CENTER
 62
     4
370
    13
100
AcDbLine
 10
1882.549221422204
 20
272.9693464099742
 30
0.0
 11
1882.549221422204
 21
342.0404825143829
 31
0.0
  0
LINE
  5
393
330
1F
100
AcDbEntity
  8
0
  6
CENTER
 62
     4
370
    13
100
AcDbLine
 10
1882.549221422204
 20
272.9693464101139
 30
0.0
 11
1882.549221422204
 21
342.040482514476
 31
0.0
  0
LINE
  5
394
330
1F
100
AcDbEntity
  8
0
  6
CENTER
 62
     4
370
    13
100
AcDbLine
 10
1787.346620490921
 20
-1396.74621969503
 30
0.0
 11
1927.797842639179
 21
-1396.74621969503
 31
0.0
  0
LINE
  5
395
330
1F
100
AcDbEntity
  8
0
  6
CENTER
 62
     4
370
    13
100
AcDbLine
 10
1807.549221422204
 20
-1345.463728439548
 30
0.0
 11
1807.549221422204
 21
-1424.92491506524
 31
0.0
  0
LINE
  5
396
330
1F
100
AcDbEntity
  8
0
  6
CENTER
 62
     4
370
    13
100
AcDbLine
 10
807.549221422204
 20
-814.0379919034391
 30
0.0
 11
807.549221422204
 21
-1501.018090754441
 31
0.0
  0
LINE
  5
397
330
1F
100
AcDbEntity
  8
0
  6
CENTER
 62
     4
370
    13
100
AcDbLine
 10
807.549221422204
 20
1816.974541141264
 30
0.0
 11
807.549221422204
 21
-213.917445586707
 31
0.0
  0
LINE
  5
398
330
1F
100
AcDbEntity
  8
0
  6
CENTER
 62
     4
370
    13
100
AcDbLine
 10
1878.912224355766
 20
829.752479324102
 30
0.0
 11
1878.912224355766
 21
774.940607156077
 31
0.0
  0
LINE
  5
399
330
1F
100
AcDbEntity
  8
0
  6
CENTER
 62
     4
370
    13
100
AcDbLine
 10
-339.5152510063191
 20
1286.212929743001
 30
0.0
 11
1926.350134441589
 21
1286.212929743001
 31
0.0
  0
LINE
  5
39A
330
1F
100
AcDbEntity
  8
0
  6
CENTER
 62
     4
370
    13
100
AcDbLine
 10
1882.549221422204
 20
1260.385376970408
 30
0.0
 11
1882.549221422204
 21
1314.456513075888
 31
0.0
  0
LINE
  5
39B
330
1F
100
AcDbEntity
  8
0
  6
CENTER
 62
     4
370
    13
100
AcDbLine
 10
1882.549221422204
 20
272.9693464099742
 30
0.0
 11
1882.549221422204
 21
342.0404825143829
 31
0.0
  0
LINE
  5
39C
330
1F
100
AcDbEntity
  8
0
  6
CENTER
 62
     4
370
    13
100
AcDbLine
 10
1926.350134441403
 20
316.2129297418832
 30
0.0
 11
-347.5152510063191
 21
316.2129297417901
 31
0.0
  0
LINE
  5
39D
330
1F
100
AcDbEntity
  8
0
  6
CENTER
 62
     4
370
    13
100
AcDbLine
 10
-267.4507785777961
 20
342.0404825143829
 30
0.0
 11
-267.4507785777961
 21
272.9693464099742
 31
0.0
  0
LINE
  5
39E
330
1F
100
AcDbEntity
  8
0
  6
CENTER
 62
     4
370
    13
100
AcDbLine
 10
-285.4507785778892
 20
-1378.161851830847
 30
0.0
 11
-285.4507785778892
 21
-1466.174012443722
 31
0.0
  0
LINE
  5
39F
330
1F
100
AcDbEntity
  8
0
  6
CENTER
 62
     4
370
    13
100
AcDbLine
 10
327.4598812231395
 20
301.2129297430008
 30
0.0
 11
287.1862800252225
 21
301.2129297430008
 31
0.0
  0
LINE
  5
3A0
330
1F
100
AcDbEntity
  8
0
  6
CENTER
 62
     4
370
    13
100
AcDbLine
 10
307.549221422204
 20
327.1211205964755
 30
0.0
 11
307.549221422204
 21
277.0478837675727
 31
0.0
  0
LINE
  5
3A1
330
1F
100
AcDbEntity
  8
0
  6
CENTER
 62
     4
370
    13
100
AcDbLine
 10
1307.549221422204
 20
242.1295631742883
 30
0.0
 11
1307.549221422204
 21
333.8317286691009
 31
0.0
  0
LINE
  5
3A2
330
1F
100
AcDbEntity
  8
0
  6
CENTER
 62
     4
370
    13
100
AcDbLine
 10
-339.8400206398618
 20
801.2129297430008
 30
0.0
 11
2047.547314542026
 21
801.2129297430008
 31
0.0
  0
LINE
  5
3A3
330
1F
100
AcDbEntity
  8
0
  6
CENTER
 62
     4
370
    13
100
AcDbLine
 10
1327.912162818999
 20
301.2129297430008
 30
0.0
 11
1287.638561621082
 21
301.2129297430008
 31
0.0
  0
LINE
  5
3A4
330
1F
100
AcDbEntity
  8
0
  6
CENTER
 62
     4
370
    13
100
AcDbLine
 10
1287.638561621082
 20
1301.212929743001
 30
0.0
 11
1327.912162818999
 21
1301.212929743001
 31
0.0
  0
LINE
  5
3A5
330
1F
100
AcDbEntity
  8
0
  6
CENTER
 62
     4
370
    13
100
AcDbLine
 10
1307.549221422204
 20
1268.594130816784
 30
0.0
 11
1307.549221422204
 21
1330.29629631169
 31
0.0
  0
LINE
  5
3A6
330
1F
100
AcDbEntity
  8
0
  6
CENTER
 62
     4
370
    13
100
AcDbLine
 10
307.549221422204
 20
1325.377975718382
 30
0.0
 11
307.549221422204
 21
1275.304738889479
 31
0.0
  0
LINE
  5
3A7
330
1F
100
AcDbEntity
  8
0
  6
CENTER
 62
     4
370
    13
100
AcDbLine
 10
287.1862800252225
 20
1301.212929743001
 30
0.0
 11
327.4598812231395
 21
1301.212929743001
 31
0.0
  0
LINE
  5
3A8
330
1F
100
AcDbEntity
  8
0
  6
CENTER
 62
     4
370
    13
100
AcDbLine
 10
-267.4507785777961
 20
339.1707544285651
 30
0.0
 11
-267.4507785777961
 21
276.1075223358893
 31
0.0
  0
LINE
  5
3A9
330
1F
100
AcDbEntity
  8
0
  6
CENTER
 62
     4
370
    13
100
AcDbLine
 10
-267.4507785777961
 20
1314.456513075981
 30
0.0
 11
-267.4507785777961
 21
1260.385376970501
 31
0.0
  0
LINE
  5
3AA
330
1F
100
AcDbEntity
  8
0
  6
CENTER
 62
     4
370
    13
100
AcDbLine
 10
1882.549221422204
 20
1260.385376970501
 30
0.0
 11
1882.549221422204
 21
1314.456513075981
 31
0.0
  0
LINE
  5
3AB
330
1F
100
AcDbEntity
  8
0
  6
CENTER
 62
     4
370
    13
100
AcDbLine
 10
1882.549221422204
 20
291.107522334795
 30
0.0
 11
1882.549221422204
 21
339.1707544285651
 31
0.0
  0
LINE
  5
3AC
330
1F
100
AcDbEntity
  8
0
  6
CENTER
 62
     4
370
    13
100
AcDbLine
 10
1882.549221422204
 20
272.9693464099742
 30
0.0
 11
1882.549221422204
 21
342.0404825143829
 31
0.0
  0
LINE
  5
3AD
330
1F
100
AcDbEntity
  8
0
  6
Continuous
 62
     4
370
    13
100
AcDbLine
 10
1171.304890252982
 20
-1360.657330806037
 30
0.0
 11
1854.349221422018
 21
-1360.657330806037
 31
0.0
  0
LINE
  5
3AE
330
1F
100
AcDbEntity
  8
0
  6
Continuous
 62
     4
370
    13
100
AcDbLine
 10
1854.349221422018
 20
-869.0573308061537
 30
0.0
 11
1854.349221422018
 21
-1360.657330806037
 31
0.0
  0
LINE
  5
3AF
330
1F
100
AcDbEntity
  8
0
  6
Continuous
 62
     4
370
    13
100
AcDbLine
 10
1832.749221422111
 20
-867.0573308061537
 30
0.0
 11
1852.349221422018
 21
-867.0573308061537
 31
0.0
  0
LINE
  5
3B0
330
1F
100
AcDbEntity
  8
0
  6
Continuous
 62
     4
370
    13
100
AcDbLine
 10
1830.749221422204
 20
-869.0573308061537
 30
0.0
 11
1830.749221422204
 21
-878.8573308061306
 31
0.0
  0
ARC
  5
3B1
330
1F
100
AcDbEntity
  8
0
  6
Continuous
 62
     4
370
    13
100
AcDbCircle
 10
1827.549221422204
 20
801.2129297430008
 30
0.0
 40
8.632447869487805
100
AcDbArc
 50
90.0
 51
270.0
  0
CIRCLE
  5
3B2
330
1F
100
AcDbEntity
  8
0
  6
Continuous
 62
     4
370
    13
100
AcDbCircle
 10
307.549221422204
 20
1301.212929742884
 30
0.0
 40
2.999999999883585
  0
CIRCLE
  5
3B3
330
1F
100
AcDbEntity
  8
0
  6
Continuous
 62
     4
370
    13
100
AcDbCircle
 10
307.549221422204
 20
301.2129297430008
 30
0.0
 40
2.999999999883585
  0
CIRCLE
  5
3B4
330
1F
100
AcDbEntity
  8
0
  6
Continuous
 62
     4
370
    13
100
AcDbCircle
 10
1307.549221422204
 20
1301.212929742884
 30
0.0
 40
3.0
  0
CIRCLE
  5
3B5
330
1F
100
AcDbEntity
  8
0
  6
Continuous
 62
     4
370
    13
100
AcDbCircle
 10
1307.549221422204
 20
301.2129297430008
 30
0.0
 40
3.0
  0
CIRCLE
  5
3B6
330
1F
100
AcDbEntity
  8
0
  6
Continuous
 62
     4
370
    13
100
AcDbCircle
 10
1307.549221422204
 20
1301.212929743001
 30
0.0
 40
3.0
  0
CIRCLE
  5
3B7
330
1F
100
AcDbEntity
  8
0
  6
Continuous
 62
     4
370
    13
100
AcDbCircle
 10
307.549221422204
 20
1301.212929743001
 30
0.0
 40
2.999999999883585
  0
ARC
  5
3B8
330
1F
100
AcDbEntity
  8
0
  6
Continuous
 62
     4
370
    13
100
AcDbCircle
 10
1852.349221422018
 20
-869.0573308061537
 30
0.0
 40
2.0
100
AcDbArc
 50
0.0
 51
90.0
  0
ARC
  5
3B9
330
1F
100
AcDbEntity
  8
0
  6
Continuous
 62
     4
370
    13
100
AcDbCircle
 10
1832.749221422111
 20
-869.0573308061537
 30
0.0
 40
2.0
100
AcDbArc
 50
90.0
 51
180.0
  0
INSERT
  5
3BA
330
1F
100
AcDbEntity
  8
0
  6
Continuous
100
AcDbBlockReference
  2
DC_IMAGEDIMGROUP_1
 10
0.0
 20
0.0
 30
0.0
  0
INSERT
  5
3BB
330
1F
100
AcDbEntity
  8
0
  6
Continuous
100
AcDbBlockReference
  2
DC_GROUP_HA19-2119Ｇ_2
 10
0.0
 20
0.0
 30
0.0
  0
INSERT
  5
3BC
330
1F
100
AcDbEntity
  8
0
  6
Continuous
100
AcDbBlockReference
  2
DC_GROUP_HA19-2119Ｇ_3
 10
0.0
 20
0.0
 30
0.0
  0
INSERT
  5
3BD
330
1F
100
AcDbEntity
  8
0
  6
Continuous
100
AcDbBlockReference
  2
DC_GROUP_HA19-2119Ｇ_4
 10
0.0
 20
0.0
 30
0.0
  0
INSERT
  5
3BE
330
1F
100
AcDbEntity
  8
0
  6
Continuous
100
AcDbBlockReference
  2
DC_GROUP_HA19-2119Ｇ_5
 10
0.0
 20
0.0
 30
0.0
  0
INSERT
  5
3BF
330
1F
100
AcDbEntity
  8
0
  6
Continuous
100
AcDbBlockReference
  2
DC_GROUP_HA19-2119Ｇ_6
 10
0.0
 20
0.0
 30
0.0
  0
INSERT
  5
3C0
330
1F
100
AcDbEntity
  8
MAINS
  6
Continuous
100
AcDbBlockReference
  2
DC_IMAGEDIMGROUP_2
 10
0.0
 20
0.0
 30
0.0
  0
INSERT
  5
3C1
330
1F
100
AcDbEntity
  8
MAINS
  6
Continuous
100
AcDbBlockReference
  2
DC_IMAGEDIMGROUP_3
 10
0.0
 20
0.0
 30
0.0
  0
INSERT
  5
3C2
330
1F
100
AcDbEntity
  8
MAINS
  6
Continuous
100
AcDbBlockReference
  2
DC_IMAGEDIMGROUP_4
 10
0.0
 20
0.0
 30
0.0
  0
INSERT
  5
3C3
330
1F
100
AcDbEntity
  8
MAINS
  6
Continuous
100
AcDbBlockReference
  2
DC_IMAGEDIMGROUP_5
 10
0.0
 20
0.0
 30
0.0
  0
INSERT
  5
3C4
330
1F
100
AcDbEntity
  8
MAINS
  6
Continuous
100
AcDbBlockReference
  2
DC_IMAGEDIMGROUP_6
 10
0.0
 20
0.0
 30
0.0
  0
INSERT
  5
3C5
330
1F
100
AcDbEntity
  8
MAINS
  6
Continuous
100
AcDbBlockReference
  2
DC_IMAGEDIMGROUP_7
 10
0.0
 20
0.0
 30
0.0
  0
INSERT
  5
3C6
330
1F
100
AcDbEntity
  8
MAINS
  6
Continuous
100
AcDbBlockReference
  2
DC_IMAGEDIMGROUP_8
 10
0.0
 20
0.0
 30
0.0
  0
INSERT
  5
3C7
330
1F
100
AcDbEntity
  8
MAINS
  6
Continuous
100
AcDbBlockReference
  2
DC_IMAGEDIMGROUP_9
 10
0.0
 20
0.0
 30
0.0
  0
INSERT
  5
3C8
330
1F
100
AcDbEntity
  8
MAINS
  6
Continuous
100
AcDbBlockReference
  2
DC_IMAGEDIMGROUP_10
 10
0.0
 20
0.0
 30
0.0
  0
INSERT
  5
3C9
330
1F
100
AcDbEntity
  8
MAINS
  6
Continuous
100
AcDbBlockReference
  2
DC_IMAGEDIMGROUP_11
 10
0.0
 20
0.0
 30
0.0
  0
INSERT
  5
3CA
330
1F
100
AcDbEntity
  8
MAINS
  6
Continuous
100
AcDbBlockReference
  2
DC_IMAGEDIMGROUP_12
 10
0.0
 20
0.0
 30
0.0
  0
INSERT
  5
3CB
330
1F
100
AcDbEntity
  8
MAINS
  6
Continuous
100
AcDbBlockReference
  2
DC_IMAGEDIMGROUP_13
 10
0.0
 20
0.0
 30
0.0
  0
INSERT
  5
3CC
330
1F
100
AcDbEntity
  8
LAYER0004
  6
Continuous
100
AcDbBlockReference
  2
DC_GROUP_HA19-2119Ｇ_1
 10
0.0
 20
0.0
 30
0.0
  0
INSERT
  5
3CD
330
1F
100
AcDbEntity
  8
LAYER0004
  6
Continuous
100
AcDbBlockReference
  2
DC_GROUP_HA19-2119Ｇ_7
 10
0.0
 20
0.0
 30
0.0
  0
INSERT
  5
3CE
330
1F
100
AcDbEntity
  8
LAYER0004
  6
Continuous
100
AcDbBlockReference
  2
DC_GROUP_HA19-2119Ｇ_8
 10
0.0
 20
0.0
 30
0.0
  0
INSERT
  5
3CF
330
1F
100
AcDbEntity
  8
LAYER0004
  6
Continuous
100
AcDbBlockReference
  2
DC_GROUP_HA19-2119Ｇ_9
 10
0.0
 20
0.0
 30
0.0
  0
INSERT
  5
3D0
330
1F
100
AcDbEntity
  8
LAYER0004
  6
Continuous
100
AcDbBlockReference
  2
DC_GROUP_HA19-2119Ｇ_10
 10
0.0
 20
0.0
 30
0.0
  0
VIEWPORT
  5
B3
102
{ACAD_XDICTIONARY
360
3D1
102
}
330
1B
100
AcDbEntity
 67
     1
  8
0
100
AcDbViewport
 10
-416.0290141714213
 20
353.1426629481489
 30
0.0
 40
18432.0
 41
13772.80171438295
 68
     1
 69
     1
 12
-416.0290141714213
 22
353.1426629481489
 13
0.0
 23
0.0
 14
0.5
 24
0.5
 15
0.0
 25
0.0
 16
0.0
 26
0.0
 36
1.0
 17
0.0
 27
0.0
 37
0.0
 42
50.0
 43
0.0
 44
0.0
 45
13772.80171438295
 50
0.0
 51
0.0
 72
   100
 90
   557152
  1

281
     0
 71
     1
 74
     0
110
0.0
120
0.0
130
0.0
111
1.0
121
0.0
131
0.0
112
0.0
122
1.0
132
0.0
 79
     0
146
0.0
170
     0
  0
ENDSEC
  0
SECTION
  2
OBJECTS
  0
DICTIONARY
  5
C
330
0
100
AcDbDictionary
281
     1
  3
ACAD_DETAILVIEWSTYLE
350
418
  3
ACAD_GROUP
350
D
  3
ACAD_LAYOUT
350
1A
  3
ACAD_MATERIAL
350
43
  3
ACAD_MLEADERSTYLE
350
6B
  3
ACAD_MLINESTYLE
350
17
  3
ACAD_PLOTSETTINGS
350
19
  3
ACAD_PLOTSTYLENAME
350
E
  3
ACAD_SCALELIST
350
47
  3
ACAD_SECTIONVIEWSTYLE
350
419
  3
ACAD_TABLESTYLE
350
69
  3
ACAD_VISUALSTYLE
350
2A
  3
ACDB_RECOMPOSE_DATA
350
415
  3
AcDbVariableDictionary
350
3D5
  0
DICTIONARY
  5
3D3
330
8
100
AcDbDictionary
280
     1
281
     1
  3
ACAD_XREC_ROUNDTRIP
360
3D4
  0
DICTIONARY
  5
3D1
330
B3
100
AcDbDictionary
280
     1
281
     1
  3
ACAD_XREC_ROUNDTRIP
360
3D2
  0
DICTIONARY
  5
418
102
{ACAD_REACTORS
330
C
102
}
330
C
100
AcDbDictionary
281
     1
  0
DICTIONARY
  5
D
102
{ACAD_REACTORS
330
C
102
}
330
C
100
AcDbDictionary
281
     1
  0
DICTIONARY
  5
1A
102
{ACAD_REACTORS
330
C
102
}
330
C
100
AcDbDictionary
281
     1
  3
Layout1
350
1E
  3
Layout2
350
26
  3
Model
350
22
  0
DICTIONARY
  5
43
102
{ACAD_REACTORS
330
C
102
}
330
C
100
AcDbDictionary
281
     1
  3
ByBlock
350
45
  3
ByLayer
350
44
  3
Global
350
46
  0
DICTIONARY
  5
6B
102
{ACAD_REACTORS
330
C
102
}
330
C
100
AcDbDictionary
281
     1
  3
Standard
350
6C
  0
DICTIONARY
  5
17
102
{ACAD_REACTORS
330
C
102
}
330
C
100
AcDbDictionary
281
     1
  3
Standard
350
18
  0
DICTIONARY
  5
19
102
{ACAD_REACTORS
330
C
102
}
330
C
100
AcDbDictionary
281
     1
  0
ACDBDICTIONARYWDFLT
  5
E
102
{ACAD_REACTORS
330
C
102
}
330
C
100
AcDbDictionary
281
     1
  3
Normal
350
F
100
AcDbDictionaryWithDefault
340
F
  0
DICTIONARY
  5
47
102
{ACAD_REACTORS
330
C
102
}
330
C
100
AcDbDictionary
281
     1
  3
A0
350
48
  3
A1
350
49
  3
A2
350
4A
  3
A3
350
4B
  3
A4
350
4C
  3
A5
350
4D
  3
A6
350
4E
  3
A7
350
4F
  3
A8
350
50
  3
A9
350
51
  3
B0
350
52
  3
B1
350
53
  3
B2
350
54
  3
B3
350
55
  3
B4
350
56
  3
B5
350
57
  3
B6
350
58
  3
B7
350
59
  3
B8
350
5A
  3
B9
350
5B
  3
C0
350
5C
  3
C1
350
5D
  3
C2
350
5E
  3
C3
350
5F
  3
C4
350
60
  3
C5
350
61
  3
C6
350
62
  3
C7
350
63
  3
C8
350
64
  3
C9
350
65
  3
D0
350
66
  3
D1
350
67
  3
D2
350
68
  0
DICTIONARY
  5
419
102
{ACAD_REACTORS
330
C
102
}
330
C
100
AcDbDictionary
281
     1
  0
DICTIONARY
  5
69
102
{ACAD_REACTORS
330
C
102
}
330
C
100
AcDbDictionary
281
     1
  3
Standard
350
6A
  0
DICTIONARY
  5
2A
102
{ACAD_REACTORS
330
C
102
}
330
C
100
AcDbDictionary
281
     1
  3
2dWireframe
350
2F
  3
Basic
350
32
  3
Brighten
350
36
  3
ColorChange
350
3A
  3
Conceptual
350
34
  3
Dim
350
35
  3
EdgeColorOff
350
3D
  3
Facepattern
350
39
  3
Flat
350
2B
  3
FlatWithEdges
350
2C
  3
Gouraud
350
2D
  3
GouraudWithEdges
350
2E
  3
Hidden
350
31
  3
JitterOff
350
3B
  3
Linepattern
350
38
  3
OverhangOff
350
3C
  3
Realistic
350
33
  3
Shaded
350
42
  3
Shaded with edges
350
41
  3
Shades of Gray
350
3E
  3
Sketchy
350
3F
  3
Thicken
350
37
  3
Wireframe
350
30
  3
X-Ray
350
40
  0
XRECORD
  5
415
102
{ACAD_REACTORS
330
C
102
}
330
C
100
AcDbXrecord
280
     1
 90
        1
330
6A
  0
DICTIONARY
  5
3D5
102
{ACAD_REACTORS
330
C
102
}
330
C
100
AcDbDictionary
281
     1
  3
CANNOSCALE
350
3D6
  3
CMLEADERSTYLE
350
417
  3
CTABLESTYLE
350
416
  3
MSLTSCALE
350
3D7
  3
XCLIPFRAME
350
3D8
  0
XRECORD
  5
3D4
102
{ACAD_REACTORS
330
3D3
102
}
330
3D3
100
AcDbXrecord
280
     1
102
VTR_0.000_0.000_1.000_1.000_VISUALSTYLE
340
2F
102
VTR_0.000_0.000_1.000_1.000_GRIDDISPLAY
 70
     3
102
VTR_0.000_0.000_1.000_1.000_GRIDMAJOR
 70
     5
102
VTR_0.000_0.000_1.000_1.000_DEFAULTLIGHTING
280
     1
102
VTR_0.000_0.000_1.000_1.000_DEFAULTLIGHTINGTYPE
 70
     1
102
VTR_0.000_0.000_1.000_1.000_BRIGHTNESS
141
0.0
102
VTR_0.000_0.000_1.000_1.000_CONTRAST
142
0.0
  0
XRECORD
  5
3D2
102
{ACAD_REACTORS
330
3D1
102
}
330
3D1
100
AcDbXrecord
280
     1
102
VISUALSTYLE
340
2F
102
GRIDDISPLAY
 70
     2
102
GRIDMAJOR
 70
     5
102
DEFAULTLIGHTING
280
     1
102
DEFAULTLIGHTINGTYPE
 70
     1
102
BRIGHTNESS
141
0.0
102
CONTRAST
142
0.0
  0
LAYOUT
  5
1E
102
{ACAD_REACTORS
330
1A
102
}
330
1A
100
AcDbPlotSettings
  1

  2
none_device
  4

  6

 40
0.0
 41
0.0
 42
0.0
 43
0.0
 44
0.0
 45
0.0
 46
0.0
 47
0.0
 48
0.0
 49
0.0
140
0.0
141
0.0
142
1.0
143
1.0
 70
   688
 72
     0
 73
     0
 74
     5
  7

 75
    16
 76
     0
 77
     2
 78
   300
147
1.0
148
0.0
149
0.0
100
AcDbLayout
  1
Layout1
 70
     0
 71
     1
 10
0.0
 20
0.0
 11
12.0
 21
9.0
 12
0.0
 22
0.0
 32
0.0
 14
1.000000000000000E+20
 24
1.000000000000000E+20
 34
1.000000000000000E+20
 15
-1.000000000000000E+20
 25
-1.000000000000000E+20
 35
-1.000000000000000E+20
146
0.0
 13
0.0
 23
0.0
 33
0.0
 16
1.0
 26
0.0
 36
0.0
 17
0.0
 27
1.0
 37
0.0
 76
     0
330
1B
331
B3
  0
LAYOUT
  5
26
102
{ACAD_REACTORS
330
1A
102
}
330
1A
100
AcDbPlotSettings
  1

  2
none_device
  4

  6

 40
0.0
 41
0.0
 42
0.0
 43
0.0
 44
0.0
 45
0.0
 46
0.0
 47
0.0
 48
0.0
 49
0.0
140
0.0
141
0.0
142
1.0
143
1.0
 70
   688
 72
     0
 73
     0
 74
     5
  7

 75
    16
 76
     0
 77
     2
 78
   300
147
1.0
148
0.0
149
0.0
100
AcDbLayout
  1
Layout2
 70
     1
 71
     2
 10
0.0
 20
0.0
 11
0.0
 21
0.0
 12
0.0
 22
0.0
 32
0.0
 14
0.0
 24
0.0
 34
0.0
 15
0.0
 25
0.0
 35
0.0
146
0.0
 13
0.0
 23
0.0
 33
0.0
 16
1.0
 26
0.0
 36
0.0
 17
0.0
 27
1.0
 37
0.0
 76
     0
330
23
  0
LAYOUT
  5
22
102
{ACAD_REACTORS
330
1A
102
}
330
1A
100
AcDbPlotSettings
  1

  2
none_device
  4
Letter_(8.50_x_11.00_Inches)
  6

 40
6.35
 41
6.35
 42
6.35000508
 43
6.35000508
 44
215.9
 45
279.4
 46
0.0
 47
0.0
 48
0.0
 49
0.0
140
0.0
141
0.0
142
1.0
143
1.0
 70
  1712
 72
     0
 73
     0
 74
     0
  7

 75
     0
 76
     0
 77
     2
 78
   300
147
1.0
148
0.0
149
0.0
100
AcDbLayout
  1
Model
 70
     1
 71
     0
 10
-4200.0
 20
-2970.0
 11
4200.0
 21
2970.0
 12
0.0
 22
0.0
 32
0.0
 14
-9632.029014171421
 24
-6533.258194243326
 34
0.0
 15
8799.970985828579
 25
7239.543520139624
 35
0.0
146
0.0
 13
0.0
 23
0.0
 33
0.0
 16
1.0
 26
0.0
 36
0.0
 17
0.0
 27
1.0
 37
0.0
 76
     0
330
1F
331
29
  0
MATERIAL
  5
45
102
{ACAD_REACTORS
330
43
102
}
102
{ACAD_XDICTIONARY
360
40B
102
}
330
43
100
AcDbMaterial
  1
ByBlock
  0
MATERIAL
  5
44
102
{ACAD_REACTORS
330
43
102
}
102
{ACAD_XDICTIONARY
360
409
102
}
330
43
100
AcDbMaterial
  1
ByLayer
  0
MATERIAL
  5
46
102
{ACAD_REACTORS
330
43
102
}
102
{ACAD_XDICTIONARY
360
40D
102
}
330
43
100
AcDbMaterial
  1
Global
  0
MLEADERSTYLE
  5
6C
102
{ACAD_REACTORS
330
6B
102
}
102
{ACAD_XDICTIONARY
360
413
102
}
330
6B
100
AcDbMLeaderStyle
170
     2
171
     1
172
     0
 90
        2
 40
0.0
 41
0.0
173
     1
 91
-1056964608
340
14
 92
       -2
290
     1
 42
0.09
291
     1
 43
0.36
  3
Standard
341
0
 44
0.18
300

342
11
174
     1
178
     6
175
     1
176
     0
 93
-1056964608
 45
0.18
292
     0
297
     0
 46
0.18
343
0
 94
-1056964608
 47
1.0
 49
1.0
140
1.0
293
     1
141
0.0
294
     1
177
     0
142
1.0
295
     0
296
     0
143
0.125
1001
ACAD_MLEADERVER
1070
     2
  0
MLINESTYLE
  5
18
102
{ACAD_REACTORS
330
17
102
}
330
17
100
AcDbMlineStyle
  2
Standard
 70
     0
  3

 62
   256
 51
90.0
 52
90.0
 71
     2
 49
0.5
 62
   256
  6
BYLAYER
 49
-0.5
 62
   256
  6
BYLAYER
  0
ACDBPLACEHOLDER
  5
F
102
{ACAD_REACTORS
330
E
102
}
330
E
  0
SCALE
  5
48
102
{ACAD_REACTORS
330
47
102
}
330
47
100
AcDbScale
 70
     0
300
1:1
140
1.0
141
1.0
290
     1
  0
SCALE
  5
49
102
{ACAD_REACTORS
330
47
102
}
330
47
100
AcDbScale
 70
     0
300
1:2
140
1.0
141
2.0
290
     0
  0
SCALE
  5
4A
102
{ACAD_REACTORS
330
47
102
}
330
47
100
AcDbScale
 70
     0
300
1:4
140
1.0
141
4.0
290
     0
  0
SCALE
  5
4B
102
{ACAD_REACTORS
330
47
102
}
330
47
100
AcDbScale
 70
     0
300
1:5
140
1.0
141
5.0
290
     0
  0
SCALE
  5
4C
102
{ACAD_REACTORS
330
47
102
}
330
47
100
AcDbScale
 70
     0
300
1:8
140
1.0
141
8.0
290
     0
  0
SCALE
  5
4D
102
{ACAD_REACTORS
330
47
102
}
330
47
100
AcDbScale
 70
     0
300
1:10
140
1.0
141
10.0
290
     0
  0
SCALE
  5
4E
102
{ACAD_REACTORS
330
47
102
}
330
47
100
AcDbScale
 70
     0
300
1:16
140
1.0
141
16.0
290
     0
  0
SCALE
  5
4F
102
{ACAD_REACTORS
330
47
102
}
330
47
100
AcDbScale
 70
     0
300
1:20
140
1.0
141
20.0
290
     0
  0
SCALE
  5
50
102
{ACAD_REACTORS
330
47
102
}
330
47
100
AcDbScale
 70
     0
300
1:30
140
1.0
141
30.0
290
     0
  0
SCALE
  5
51
102
{ACAD_REACTORS
330
47
102
}
330
47
100
AcDbScale
 70
     0
300
1:40
140
1.0
141
40.0
290
     0
  0
SCALE
  5
52
102
{ACAD_REACTORS
330
47
102
}
330
47
100
AcDbScale
 70
     0
300
1:50
140
1.0
141
50.0
290
     0
  0
SCALE
  5
53
102
{ACAD_REACTORS
330
47
102
}
330
47
100
AcDbScale
 70
     0
300
1:100
140
1.0
141
100.0
290
     0
  0
SCALE
  5
54
102
{ACAD_REACTORS
330
47
102
}
330
47
100
AcDbScale
 70
     0
300
2:1
140
2.0
141
1.0
290
     0
  0
SCALE
  5
55
102
{ACAD_REACTORS
330
47
102
}
330
47
100
AcDbScale
 70
     0
300
4:1
140
4.0
141
1.0
290
     0
  0
SCALE
  5
56
102
{ACAD_REACTORS
330
47
102
}
330
47
100
AcDbScale
 70
     0
300
8:1
140
8.0
141
1.0
290
     0
  0
SCALE
  5
57
102
{ACAD_REACTORS
330
47
102
}
330
47
100
AcDbScale
 70
     0
300
10:1
140
10.0
141
1.0
290
     0
  0
SCALE
  5
58
102
{ACAD_REACTORS
330
47
102
}
330
47
100
AcDbScale
 70
     0
300
100:1
140
100.0
141
1.0
290
     0
  0
SCALE
  5
59
102
{ACAD_REACTORS
330
47
102
}
330
47
100
AcDbScale
 70
     0
300
1/128" = 1'-0"
140
0.0078125
141
12.0
290
     0
  0
SCALE
  5
5A
102
{ACAD_REACTORS
330
47
102
}
330
47
100
AcDbScale
 70
     0
300
1/64" = 1'-0"
140
0.015625
141
12.0
290
     0
  0
SCALE
  5
5B
102
{ACAD_REACTORS
330
47
102
}
330
47
100
AcDbScale
 70
     0
300
1/32" = 1'-0"
140
0.03125
141
12.0
290
     0
  0
SCALE
  5
5C
102
{ACAD_REACTORS
330
47
102
}
330
47
100
AcDbScale
 70
     0
300
1/16" = 1'-0"
140
0.0625
141
12.0
290
     0
  0
SCALE
  5
5D
102
{ACAD_REACTORS
330
47
102
}
330
47
100
AcDbScale
 70
     0
300
3/32" = 1'-0"
140
0.09375
141
12.0
290
     0
  0
SCALE
  5
5E
102
{ACAD_REACTORS
330
47
102
}
330
47
100
AcDbScale
 70
     0
300
1/8" = 1'-0"
140
0.125
141
12.0
290
     0
  0
SCALE
  5
5F
102
{ACAD_REACTORS
330
47
102
}
330
47
100
AcDbScale
 70
     0
300
3/16" = 1'-0"
140
0.1875
141
12.0
290
     0
  0
SCALE
  5
60
102
{ACAD_REACTORS
330
47
102
}
330
47
100
AcDbScale
 70
     0
300
1/4" = 1'-0"
140
0.25
141
12.0
290
     0
  0
SCALE
  5
61
102
{ACAD_REACTORS
330
47
102
}
330
47
100
AcDbScale
 70
     0
300
3/8" = 1'-0"
140
0.375
141
12.0
290
     0
  0
SCALE
  5
62
102
{ACAD_REACTORS
330
47
102
}
330
47
100
AcDbScale
 70
     0
300
1/2" = 1'-0"
140
0.5
141
12.0
290
     0
  0
SCALE
  5
63
102
{ACAD_REACTORS
330
47
102
}
330
47
100
AcDbScale
 70
     0
300
3/4" = 1'-0"
140
0.75
141
12.0
290
     0
  0
SCALE
  5
64
102
{ACAD_REACTORS
330
47
102
}
330
47
100
AcDbScale
 70
     0
300
1" = 1'-0"
140
1.0
141
12.0
290
     0
  0
SCALE
  5
65
102
{ACAD_REACTORS
330
47
102
}
330
47
100
AcDbScale
 70
     0
300
1-1/2" = 1'-0"
140
1.5
141
12.0
290
     0
  0
SCALE
  5
66
102
{ACAD_REACTORS
330
47
102
}
330
47
100
AcDbScale
 70
     0
300
3" = 1'-0"
140
3.0
141
12.0
290
     0
  0
SCALE
  5
67
102
{ACAD_REACTORS
330
47
102
}
330
47
100
AcDbScale
 70
     0
300
6" = 1'-0"
140
6.0
141
12.0
290
     0
  0
SCALE
  5
68
102
{ACAD_REACTORS
330
47
102
}
330
47
100
AcDbScale
 70
     0
300
1'-0" = 1'-0"
140
12.0
141
12.0
290
     0
  0
TABLESTYLE
  5
6A
102
{ACAD_REACTORS
330
69
102
}
102
{ACAD_XDICTIONARY
360
40F
102
}
330
69
100
AcDbTableStyle
  3
Standard
 70
     0
 71
     0
 40
0.06
 41
0.06
280
     0
281
     0
  7
Standard
140
0.18
170
     2
 62
     0
 63
   257
283
     0
274
    -2
284
     1
 64
     0
275
    -2
285
     1
 65
     0
276
    -2
286
     1
 66
     0
277
    -2
287
     1
 67
     0
278
    -2
288
     1
 68
     0
279
    -2
289
     1
 69
     0
  7
Standard
140
0.25
170
     5
 62
     0
 63
   257
283
     0
274
    -2
284
     1
 64
     0
275
    -2
285
     1
 65
     0
276
    -2
286
     1
 66
     0
277
    -2
287
     1
 67
     0
278
    -2
288
     1
 68
     0
279
    -2
289
     1
 69
     0
  7
Standard
140
0.18
170
     5
 62
     0
 63
   257
283
     0
274
    -2
284
     1
 64
     0
275
    -2
285
     1
 65
     0
276
    -2
286
     1
 66
     0
277
    -2
287
     1
 67
     0
278
    -2
288
     1
 68
     0
279
    -2
289
     1
 69
     0
  0
VISUALSTYLE
  5
2F
102
{ACAD_REACTORS
330
2A
102
}
102
{ACAD_XDICTIONARY
360
3E1
102
}
330
2A
100
AcDbVisualStyle
  2
2dWireframe
 70
     4
 71
     0
 72
     2
 73
     0
 90
        0
 40
0.6
 41
30.0
 62
     5
 63
     7
421
 16777215
 74
     1
 91
        4
 64
     7
 65
   257
 75
     1
175
     1
 42
1.0
 92
        0
 66
   257
 43
1.0
 76
     1
 77
     6
 78
     2
 67
     7
 79
     5
170
     0
171
     0
290
     0
174
     0
 93
        1
 44
0.0
173
     0
291
     0
 45
0.0
1001
ACAD
1000
AcDbSavedByObjectVersion
1070
     0
  0
VISUALSTYLE
  5
32
102
{ACAD_REACTORS
330
2A
102
}
102
{ACAD_XDICTIONARY
360
3E7
102
}
330
2A
100
AcDbVisualStyle
  2
Basic
 70
     7
 71
     1
 72
     0
 73
     1
 90
        0
 40
0.6
 41
30.0
 62
     5
 63
     7
421
 16777215
 74
     0
 91
        4
 64
     7
 65
   257
 75
     1
175
     1
 42
1.0
 92
        8
 66
     7
 43
1.0
 76
     1
 77
     6
 78
     2
 67
     7
 79
     5
170
     0
171
     0
290
     0
174
     0
 93
        1
 44
0.0
173
     0
291
     1
 45
0.0
1001
ACAD
1000
AcDbSavedByObjectVersion
1070
     0
  0
VISUALSTYLE
  5
36
102
{ACAD_REACTORS
330
2A
102
}
102
{ACAD_XDICTIONARY
360
3EF
102
}
330
2A
100
AcDbVisualStyle
  2
Brighten
 70
    12
 71
     2
 72
     2
 73
     0
 90
        0
 40
0.6
 41
30.0
 62
     5
 63
     7
421
 16777215
 74
     1
 91
        4
 64
     7
 65
   257
 75
     1
175
     1
 42
1.0
 92
        8
 66
     7
 43
1.0
 76
     1
 77
     6
 78
     2
 67
     7
 79
     5
170
     0
171
     0
290
     0
174
     0
 93
        1
 44
50.0
173
     0
291
     1
 45
0.0
1001
ACAD
1000
AcDbSavedByObjectVersion
1070
     0
  0
VISUALSTYLE
  5
3A
102
{ACAD_REACTORS
330
2A
102
}
102
{ACAD_XDICTIONARY
360
3F7
102
}
330
2A
100
AcDbVisualStyle
  2
ColorChange
 70
    16
 71
     2
 72
     2
 73
     3
 90
        0
 40
0.6
 41
30.0
 62
     5
 63
     8
421
  8421504
 74
     1
 91
        4
 64
     7
 65
   257
 75
     1
175
     1
 42
1.0
 92
        8
 66
     8
424
  8421504
 43
1.0
 76
     1
 77
     6
 78
     2
 67
     7
 79
     5
170
     0
171
     0
290
     0
174
     0
 93
        1
 44
0.0
173
     0
291
     1
 45
0.0
1001
ACAD
1000
AcDbSavedByObjectVersion
1070
     0
  0
VISUALSTYLE
  5
34
102
{ACAD_REACTORS
330
2A
102
}
102
{ACAD_XDICTIONARY
360
3EB
102
}
330
2A
100
AcDbVisualStyle
  2
Conceptual
 70
     9
 71
     3
 72
     2
 73
     0
 90
        0
 40
0.6
 41
30.0
 62
     5
 63
     7
421
 16777215
 74
     2
 91
        2
 64
     7
 65
   257
 75
     1
175
     1
 42
179.0
 92
        8
 66
     7
 43
1.0
 76
     1
 77
     6
 78
     2
 67
     7
 79
     3
170
     0
171
     0
290
     0
174
     0
 93
        1
 44
0.0
173
     0
291
     0
 45
0.0
1001
ACAD
1000
AcDbSavedByObjectVersion
1070
     0
  0
VISUALSTYLE
  5
35
102
{ACAD_REACTORS
330
2A
102
}
102
{ACAD_XDICTIONARY
360
3ED
102
}
330
2A
100
AcDbVisualStyle
  2
Dim
 70
    11
 71
     2
 72
     2
 73
     0
 90
        0
 40
0.6
 41
30.0
 62
     5
 63
     7
421
 16777215
 74
     1
 91
        4
 64
     7
 65
   257
 75
     1
175
     1
 42
1.0
 92
        8
 66
     7
 43
1.0
 76
     1
 77
     6
 78
     2
 67
     7
 79
     5
170
     0
171
     0
290
     0
174
     0
 93
        1
 44
-50.0
173
     0
291
     1
 45
0.0
1001
ACAD
1000
AcDbSavedByObjectVersion
1070
     0
  0
VISUALSTYLE
  5
3D
102
{ACAD_REACTORS
330
2A
102
}
102
{ACAD_XDICTIONARY
360
3FD
102
}
330
2A
100
AcDbVisualStyle
  2
EdgeColorOff
 70
    22
 71
     2
 72
     2
 73
     0
 90
        0
 40
0.6
 41
30.0
 62
     5
 63
     7
421
 16777215
 74
     1
 91
        4
 64
     7
 65
   257
 75
     1
175
     1
 42
1.0
 92
        8
 66
     7
 43
1.0
 76
     1
 77
     6
 78
     2
 67
     7
 79
     5
170
     0
171
     0
290
     0
174
     0
 93
        1
 44
0.0
173
     0
291
     1
 45
0.0
1001
ACAD
1000
AcDbSavedByObjectVersion
1070
     0
  0
VISUALSTYLE
  5
39
102
{ACAD_REACTORS
330
2A
102
}
102
{ACAD_XDICTIONARY
360
3F5
102
}
330
2A
100
AcDbVisualStyle
  2
Facepattern
 70
    15
 71
     2
 72
     2
 73
     0
 90
        0
 40
0.6
 41
30.0
 62
     5
 63
     7
421
 16777215
 74
     1
 91
        4
 64
     7
 65
   257
 75
     1
175
     1
 42
1.0
 92
        8
 66
     7
 43
1.0
 76
     1
 77
     6
 78
     2
 67
     7
 79
     5
170
     0
171
     0
290
     0
174
     0
 93
        1
 44
0.0
173
     0
291
     1
 45
0.0
1001
ACAD
1000
AcDbSavedByObjectVersion
1070
     0
  0
VISUALSTYLE
  5
2B
102
{ACAD_REACTORS
330
2A
102
}
102
{ACAD_XDICTIONARY
360
3D9
102
}
330
2A
100
AcDbVisualStyle
  2
Flat
 70
     0
 71
     2
 72
     1
 73
     1
 90
        2
 40
0.6
 41
30.0
 62
     5
 63
     7
421
 16777215
 74
     0
 91
        0
 64
     7
 65
   257
 75
     1
175
     1
 42
1.0
 92
        8
 66
     7
 43
1.0
 76
     1
 77
     6
 78
     2
 67
     7
 79
     5
170
     0
171
     0
290
     0
174
     0
 93
       13
 44
0.0
173
     0
291
     1
 45
0.0
1001
ACAD
1000
AcDbSavedByObjectVersion
1070
     0
  0
VISUALSTYLE
  5
2C
102
{ACAD_REACTORS
330
2A
102
}
102
{ACAD_XDICTIONARY
360
3DB
102
}
330
2A
100
AcDbVisualStyle
  2
FlatWithEdges
 70
     1
 71
     2
 72
     1
 73
     1
 90
        2
 40
0.6
 41
30.0
 62
     5
 63
     7
421
 16777215
 74
     1
 91
        0
 64
     7
 65
   257
 75
     1
175
     1
 42
1.0
 92
        0
 66
   257
 43
1.0
 76
     1
 77
     6
 78
     2
 67
     7
 79
     5
170
     0
171
     0
290
     0
174
     0
 93
       13
 44
0.0
173
     0
291
     1
 45
0.0
1001
ACAD
1000
AcDbSavedByObjectVersion
1070
     0
  0
VISUALSTYLE
  5
2D
102
{ACAD_REACTORS
330
2A
102
}
102
{ACAD_XDICTIONARY
360
3DD
102
}
330
2A
100
AcDbVisualStyle
  2
Gouraud
 70
     2
 71
     2
 72
     2
 73
     1
 90
        2
 40
0.6
 41
30.0
 62
     5
 63
     7
421
 16777215
 74
     0
 91
        0
 64
     7
 65
   257
 75
     1
175
     1
 42
1.0
 92
        0
 66
     7
 43
1.0
 76
     1
 77
     6
 78
     2
 67
     7
 79
     5
170
     0
171
     0
290
     0
174
     0
 93
       13
 44
0.0
173
     0
291
     1
 45
0.0
1001
ACAD
1000
AcDbSavedByObjectVersion
1070
     0
  0
VISUALSTYLE
  5
2E
102
{ACAD_REACTORS
330
2A
102
}
102
{ACAD_XDICTIONARY
360
3DF
102
}
330
2A
100
AcDbVisualStyle
  2
GouraudWithEdges
 70
     3
 71
     2
 72
     2
 73
     1
 90
        2
 40
0.6
 41
30.0
 62
     5
 63
     7
421
 16777215
 74
     1
 91
        0
 64
     7
 65
   257
 75
     1
175
     1
 42
1.0
 92
        0
 66
   257
 43
1.0
 76
     1
 77
     6
 78
     2
 67
     7
 79
     5
170
     0
171
     0
290
     0
174
     0
 93
       13
 44
0.0
173
     0
291
     1
 45
0.0
1001
ACAD
1000
AcDbSavedByObjectVersion
1070
     0
  0
VISUALSTYLE
  5
31
102
{ACAD_REACTORS
330
2A
102
}
102
{ACAD_XDICTIONARY
360
3E5
102
}
330
2A
100
AcDbVisualStyle
  2
Hidden
 70
     6
 71
     1
 72
     2
 73
     2
 90
        0
 40
0.6
 41
30.0
 62
     5
 63
     7
421
 16777215
 74
     2
 91
        2
 64
     7
 65
   257
 75
     2
175
     1
 42
40.0
 92
        0
 66
   257
 43
1.0
 76
     1
 77
     6
 78
     2
 67
     7
 79
     3
170
     0
171
     0
290
     0
174
     0
 93
        1
 44
0.0
173
     0
291
     0
 45
0.0
1001
ACAD
1000
AcDbSavedByObjectVersion
1070
     0
  0
VISUALSTYLE
  5
3B
102
{ACAD_REACTORS
330
2A
102
}
102
{ACAD_XDICTIONARY
360
3F9
102
}
330
2A
100
AcDbVisualStyle
  2
JitterOff
 70
    20
 71
     2
 72
     2
 73
     0
 90
        0
 40
0.6
 41
30.0
 62
     5
 63
     7
421
 16777215
 74
     1
 91
        4
 64
     7
 65
   257
 75
     1
175
     1
 42
1.0
 92
       10
 66
     7
 43
1.0
 76
     1
 77
     6
 78
     2
 67
     7
 79
     5
170
     0
171
     0
290
     0
174
     0
 93
        1
 44
0.0
173
     0
291
     1
 45
0.0
1001
ACAD
1000
AcDbSavedByObjectVersion
1070
     0
  0
VISUALSTYLE
  5
38
102
{ACAD_REACTORS
330
2A
102
}
102
{ACAD_XDICTIONARY
360
3F3
102
}
330
2A
100
AcDbVisualStyle
  2
Linepattern
 70
    14
 71
     2
 72
     2
 73
     0
 90
        0
 40
0.6
 41
30.0
 62
     5
 63
     7
421
 16777215
 74
     1
 91
        4
 64
     7
 65
   257
 75
     7
175
     7
 42
1.0
 92
        8
 66
     7
 43
1.0
 76
     1
 77
     6
 78
     2
 67
     7
 79
     5
170
     0
171
     0
290
     0
174
     0
 93
        1
 44
0.0
173
     0
291
     1
 45
0.0
1001
ACAD
1000
AcDbSavedByObjectVersion
1070
     0
  0
VISUALSTYLE
  5
3C
102
{ACAD_REACTORS
330
2A
102
}
102
{ACAD_XDICTIONARY
360
3FB
102
}
330
2A
100
AcDbVisualStyle
  2
OverhangOff
 70
    21
 71
     2
 72
     2
 73
     0
 90
        0
 40
0.6
 41
30.0
 62
     5
 63
     7
421
 16777215
 74
     1
 91
        4
 64
     7
 65
   257
 75
     1
175
     1
 42
1.0
 92
        9
 66
     7
 43
1.0
 76
     1
 77
     6
 78
     2
 67
     7
 79
     5
170
     0
171
     0
290
     0
174
     0
 93
        1
 44
0.0
173
     0
291
     1
 45
0.0
1001
ACAD
1000
AcDbSavedByObjectVersion
1070
     0
  0
VISUALSTYLE
  5
33
102
{ACAD_REACTORS
330
2A
102
}
102
{ACAD_XDICTIONARY
360
3E9
102
}
330
2A
100
AcDbVisualStyle
  2
Realistic
 70
     8
 71
     2
 72
     3
 73
     0
 90
        2
 40
0.6
 41
30.0
 62
     5
 63
     7
421
 16777215
 74
     0
 91
        0
 64
     7
 65
   257
 75
     1
175
     1
 42
1.0
 92
        8
 66
   257
 43
1.0
 76
     1
 77
     6
 78
     2
 67
     7
 79
     3
170
     0
171
     0
290
     0
174
     0
 93
       13
 44
0.0
173
     0
291
     0
 45
0.0
1001
ACAD
1000
AcDbSavedByObjectVersion
1070
     0
  0
VISUALSTYLE
  5
42
102
{ACAD_REACTORS
330
2A
102
}
102
{ACAD_XDICTIONARY
360
407
102
}
330
2A
100
AcDbVisualStyle
  2
Shaded
 70
    27
 71
     2
 72
     2
 73
     1
 90
        2
 40
0.6
 41
30.0
 62
     5
 63
     7
421
 16777215
 74
     0
 91
        4
 64
     7
 65
   257
 75
     1
175
     1
 42
1.0
 92
        8
 66
   257
 43
1.0
 76
     1
 77
     6
 78
     2
 67
     8
425
  7895160
 79
     3
170
     0
171
     0
290
     0
174
     0
 93
        5
 44
0.0
173
     0
291
     0
 45
0.0
1001
ACAD
1000
AcDbSavedByObjectVersion
1070
     0
  0
VISUALSTYLE
  5
41
102
{ACAD_REACTORS
330
2A
102
}
102
{ACAD_XDICTIONARY
360
405
102
}
330
2A
100
AcDbVisualStyle
  2
Shaded with edges
 70
    26
 71
     2
 72
     2
 73
     1
 90
        2
 40
0.6
 41
30.0
 62
     5
 63
     7
421
 16777215
 74
     1
 91
       10
 64
     7
 65
   257
 75
     2
175
     1
 42
1.0
 92
        8
 66
   257
 43
1.0
 76
     1
 77
     6
 78
     2
 67
     7
 79
     3
170
     0
171
     0
290
     0
174
     0
 93
        5
 44
0.0
173
     0
291
     0
 45
0.0
1001
ACAD
1000
AcDbSavedByObjectVersion
1070
     0
  0
VISUALSTYLE
  5
3E
102
{ACAD_REACTORS
330
2A
102
}
102
{ACAD_XDICTIONARY
360
3FF
102
}
330
2A
100
AcDbVisualStyle
  2
Shades of Gray
 70
    23
 71
     2
 72
     2
 73
     3
 90
        0
 40
0.6
 41
30.0
 62
     5
 63
     7
421
 16777215
 74
     2
 91
        2
 64
     7
 65
     7
 75
     1
175
     1
 42
40.0
 92
        8
 66
     7
 43
1.0
 76
     1
 77
     6
 78
     2
 67
     7
 79
     3
170
     0
171
     0
290
     0
174
     0
 93
        1
 44
0.0
173
     0
291
     0
 45
0.0
1001
ACAD
1000
AcDbSavedByObjectVersion
1070
     0
  0
VISUALSTYLE
  5
3F
102
{ACAD_REACTORS
330
2A
102
}
102
{ACAD_XDICTIONARY
360
401
102
}
330
2A
100
AcDbVisualStyle
  2
Sketchy
 70
    24
 71
     1
 72
     2
 73
     2
 90
        0
 40
0.6
 41
30.0
 62
     5
 63
     7
421
 16777215
 74
     2
 91
        2
 64
     7
 65
     7
 75
     1
175
     1
 42
40.0
 92
       11
 66
     7
 43
1.0
 76
     1
 77
     6
 78
     2
 67
     7
 79
     6
170
     0
171
     0
290
     0
174
     0
 93
        1
 44
0.0
173
     0
291
     0
 45
0.0
1001
ACAD
1000
AcDbSavedByObjectVersion
1070
     0
  0
VISUALSTYLE
  5
37
102
{ACAD_REACTORS
330
2A
102
}
102
{ACAD_XDICTIONARY
360
3F1
102
}
330
2A
100
AcDbVisualStyle
  2
Thicken
 70
    13
 71
     2
 72
     2
 73
     0
 90
        0
 40
0.6
 41
30.0
 62
     5
 63
     7
421
 16777215
 74
     1
 91
        4
 64
     7
 65
   257
 75
     1
175
     1
 42
1.0
 92
       12
 66
     7
 43
1.0
 76
     1
 77
     6
 78
     2
 67
     7
 79
     5
170
     0
171
     0
290
     0
174
     0
 93
        1
 44
0.0
173
     0
291
     1
 45
0.0
1001
ACAD
1000
AcDbSavedByObjectVersion
1070
     0
  0
VISUALSTYLE
  5
30
102
{ACAD_REACTORS
330
2A
102
}
102
{ACAD_XDICTIONARY
360
3E3
102
}
330
2A
100
AcDbVisualStyle
  2
Wireframe
 70
     5
 71
     0
 72
     2
 73
     0
 90
        0
 40
0.6
 41
30.0
 62
     5
 63
     7
421
 16777215
 74
     1
 91
        4
 64
     7
 65
   257
 75
     1
175
     1
 42
1.0
 92
        0
 66
   257
 43
1.0
 76
     1
 77
     6
 78
     2
 67
     7
 79
     3
170
     0
171
     0
290
     0
174
     0
 93
        1
 44
0.0
173
     0
291
     0
 45
0.0
1001
ACAD
1000
AcDbSavedByObjectVersion
1070
     0
  0
VISUALSTYLE
  5
40
102
{ACAD_REACTORS
330
2A
102
}
102
{ACAD_XDICTIONARY
360
403
102
}
330
2A
100
AcDbVisualStyle
  2
X-Ray
 70
    25
 71
     2
 72
     2
 73
     1
 90
        1
 40
0.5
 41
30.0
 62
     5
 63
     7
421
 16777215
 74
     1
 91
        0
 64
     7
 65
   257
 75
     1
175
     1
 42
1.0
 92
        8
 66
     7
 43
1.0
 76
     1
 77
     6
 78
     2
 67
     7
 79
     3
170
     0
171
     0
290
     0
174
     0
 93
       13
 44
0.0
173
     0
291
     0
 45
0.0
1001
ACAD
1000
AcDbSavedByObjectVersion
1070
     0
  0
DICTIONARYVAR
  5
3D6
102
{ACAD_REACTORS
330
3D5
102
}
330
3D5
100
DictionaryVariables
280
     0
  1
1:1
  0
DICTIONARYVAR
  5
417
102
{ACAD_REACTORS
330
3D5
102
}
330
3D5
100
DictionaryVariables
280
     0
  1
Standard
  0
DICTIONARYVAR
  5
416
102
{ACAD_REACTORS
330
3D5
102
}
330
3D5
100
DictionaryVariables
280
     0
  1
Standard
  0
DICTIONARYVAR
  5
3D7
102
{ACAD_REACTORS
330
3D5
102
}
330
3D5
100
DictionaryVariables
280
     0
  1
1
  0
DICTIONARYVAR
  5
3D8
102
{ACAD_REACTORS
330
3D5
102
}
330
3D5
100
DictionaryVariables
280
     0
  1
2
  0
DICTIONARY
  5
40B
330
45
100
AcDbDictionary
280
     1
281
     1
  3
ACAD_XREC_ROUNDTRIP
360
40C
  0
DICTIONARY
  5
409
330
44
100
AcDbDictionary
280
     1
281
     1
  3
ACAD_XREC_ROUNDTRIP
360
40A
  0
DICTIONARY
  5
40D
330
46
100
AcDbDictionary
280
     1
281
     1
  3
ACAD_XREC_ROUNDTRIP
360
40E
  0
DICTIONARY
  5
413
330
6C
100
AcDbDictionary
280
     1
281
     1
  3
ACAD_XREC_ROUNDTRIP
360
414
  0
DICTIONARY
  5
40F
330
6A
100
AcDbDictionary
280
     1
281
     1
  3
ACAD_ROUNDTRIP_2008_TABLESTYLE_CELLSTYLEMAP
360
411
  3
ACAD_XREC_ROUNDTRIP
360
410
  0
DICTIONARY
  5
3E1
330
2F
100
AcDbDictionary
280
     1
281
     1
  3
ACAD_XREC_ROUNDTRIP
360
3E2
  0
DICTIONARY
  5
3E7
330
32
100
AcDbDictionary
280
     1
281
     1
  3
ACAD_XREC_ROUNDTRIP
360
3E8
  0
DICTIONARY
  5
3EF
330
36
100
AcDbDictionary
280
     1
281
     1
  3
ACAD_XREC_ROUNDTRIP
360
3F0
  0
DICTIONARY
  5
3F7
330
3A
100
AcDbDictionary
280
     1
281
     1
  3
ACAD_XREC_ROUNDTRIP
360
3F8
  0
DICTIONARY
  5
3EB
330
34
100
AcDbDictionary
280
     1
281
     1
  3
ACAD_XREC_ROUNDTRIP
360
3EC
  0
DICTIONARY
  5
3ED
330
35
100
AcDbDictionary
280
     1
281
     1
  3
ACAD_XREC_ROUNDTRIP
360
3EE
  0
DICTIONARY
  5
3FD
330
3D
100
AcDbDictionary
280
     1
281
     1
  3
ACAD_XREC_ROUNDTRIP
360
3FE
  0
DICTIONARY
  5
3F5
330
39
100
AcDbDictionary
280
     1
281
     1
  3
ACAD_XREC_ROUNDTRIP
360
3F6
  0
DICTIONARY
  5
3D9
330
2B
100
AcDbDictionary
280
     1
281
     1
  3
ACAD_XREC_ROUNDTRIP
360
3DA
  0
DICTIONARY
  5
3DB
330
2C
100
AcDbDictionary
280
     1
281
     1
  3
ACAD_XREC_ROUNDTRIP
360
3DC
  0
DICTIONARY
  5
3DD
330
2D
100
AcDbDictionary
280
     1
281
     1
  3
ACAD_XREC_ROUNDTRIP
360
3DE
  0
DICTIONARY
  5
3DF
330
2E
100
AcDbDictionary
280
     1
281
     1
  3
ACAD_XREC_ROUNDTRIP
360
3E0
  0
DICTIONARY
  5
3E5
330
31
100
AcDbDictionary
280
     1
281
     1
  3
ACAD_XREC_ROUNDTRIP
360
3E6
  0
DICTIONARY
  5
3F9
330
3B
100
AcDbDictionary
280
     1
281
     1
  3
ACAD_XREC_ROUNDTRIP
360
3FA
  0
DICTIONARY
  5
3F3
330
38
100
AcDbDictionary
280
     1
281
     1
  3
ACAD_XREC_ROUNDTRIP
360
3F4
  0
DICTIONARY
  5
3FB
330
3C
100
AcDbDictionary
280
     1
281
     1
  3
ACAD_XREC_ROUNDTRIP
360
3FC
  0
DICTIONARY
  5
3E9
330
33
100
AcDbDictionary
280
     1
281
     1
  3
ACAD_XREC_ROUNDTRIP
360
3EA
  0
DICTIONARY
  5
407
330
42
100
AcDbDictionary
280
     1
281
     1
  3
ACAD_XREC_ROUNDTRIP
360
408
  0
DICTIONARY
  5
405
330
41
100
AcDbDictionary
280
     1
281
     1
  3
ACAD_XREC_ROUNDTRIP
360
406
  0
DICTIONARY
  5
3FF
330
3E
100
AcDbDictionary
280
     1
281
     1
  3
ACAD_XREC_ROUNDTRIP
360
400
  0
DICTIONARY
  5
401
330
3F
100
AcDbDictionary
280
     1
281
     1
  3
ACAD_XREC_ROUNDTRIP
360
402
  0
DICTIONARY
  5
3F1
330
37
100
AcDbDictionary
280
     1
281
     1
  3
ACAD_XREC_ROUNDTRIP
360
3F2
  0
DICTIONARY
  5
3E3
330
30
100
AcDbDictionary
280
     1
281
     1
  3
ACAD_XREC_ROUNDTRIP
360
3E4
  0
DICTIONARY
  5
403
330
40
100
AcDbDictionary
280
     1
281
     1
  3
ACAD_XREC_ROUNDTRIP
360
404
  0
XRECORD
  5
40C
102
{ACAD_REACTORS
330
40B
102
}
330
40B
100
AcDbXrecord
280
     1
102
MATERIAL
148
0.0
149
0.0
149
0.0
 93
        0
 94
      127
282
     0
 72
     1
 77
     1
171
     1
175
     1
179
     1
273
     0
  0
XRECORD
  5
40A
102
{ACAD_REACTORS
330
409
102
}
330
409
100
AcDbXrecord
280
     1
102
MATERIAL
148
0.0
149
0.0
149
0.0
 93
        0
 94
      127
282
     0
 72
     1
 77
     1
171
     1
175
     1
179
     1
273
     0
  0
XRECORD
  5
40E
102
{ACAD_REACTORS
330
40D
102
}
330
40D
100
AcDbXrecord
280
     1
102
MATERIAL
148
0.0
149
0.0
149
0.0
 93
        0
 94
      127
282
     0
 72
     1
 77
     1
171
     1
175
     1
179
     1
273
     0
  0
XRECORD
  5
414
102
{ACAD_REACTORS
330
413
102
}
330
413
100
AcDbXrecord
280
     1
102
ACAD_ROUNDTRIP_2010_MLEADER_STYLE
  0
CELLSTYLEMAP
  5
411
102
{ACAD_REACTORS
330
40F
102
}
330
40F
100
AcDbCellStyleMap
 90
        3
300
CELLSTYLE
  1
TABLEFORMAT_BEGIN
 90
        5
170
     1
 91
        0
 92
    32768
 62
   257
 93
        1
300
CONTENTFORMAT
  1
CONTENTFORMAT_BEGIN
 90
        0
 91
        0
 92
        4
 93
        0
300

 40
0.0
140
1.0
 94
        5
 62
     0
340
11
144
0.25
309
CONTENTFORMAT_END
171
     1
301
MARGIN
  1
CELLMARGIN_BEGIN
 40
0.06
 40
0.06
 40
0.06
 40
0.06
 40
0.06
 40
0.06
309
CELLMARGIN_END
 94
        6
 95
        1
302
GRIDFORMAT
  1
GRIDFORMAT_BEGIN
 90
        0
 91
        1
 62
     0
 92
       -2
340
14
 93
        0
 40
0.045
309
GRIDFORMAT_END
 95
        2
302
GRIDFORMAT
  1
GRIDFORMAT_BEGIN
 90
        0
 91
        1
 62
     0
 92
       -2
340
14
 93
        0
 40
0.045
309
GRIDFORMAT_END
 95
        4
302
GRIDFORMAT
  1
GRIDFORMAT_BEGIN
 90
        0
 91
        1
 62
     0
 92
       -2
340
14
 93
        0
 40
0.045
309
GRIDFORMAT_END
 95
        8
302
GRIDFORMAT
  1
GRIDFORMAT_BEGIN
 90
        0
 91
        1
 62
     0
 92
       -2
340
14
 93
        0
 40
0.045
309
GRIDFORMAT_END
 95
       16
302
GRIDFORMAT
  1
GRIDFORMAT_BEGIN
 90
        0
 91
        1
 62
     0
 92
       -2
340
14
 93
        0
 40
0.045
309
GRIDFORMAT_END
 95
       32
302
GRIDFORMAT
  1
GRIDFORMAT_BEGIN
 90
        0
 91
        1
 62
     0
 92
       -2
340
14
 93
        0
 40
0.045
309
GRIDFORMAT_END
309
TABLEFORMAT_END
  1
CELLSTYLE_BEGIN
 90
        1
 91
        1
300
_TITLE
309
CELLSTYLE_END
300
CELLSTYLE
  1
TABLEFORMAT_BEGIN
 90
        5
170
     1
 91
        0
 92
        0
 62
   257
 93
        1
300
CONTENTFORMAT
  1
CONTENTFORMAT_BEGIN
 90
        0
 91
        0
 92
        4
 93
        0
300

 40
0.0
140
1.0
 94
        5
 62
     0
340
11
144
0.18
309
CONTENTFORMAT_END
171
     1
301
MARGIN
  1
CELLMARGIN_BEGIN
 40
0.06
 40
0.06
 40
0.06
 40
0.06
 40
0.06
 40
0.06
309
CELLMARGIN_END
 94
        6
 95
        1
302
GRIDFORMAT
  1
GRIDFORMAT_BEGIN
 90
        0
 91
        1
 62
     0
 92
       -2
340
14
 93
        0
 40
0.045
309
GRIDFORMAT_END
 95
        2
302
GRIDFORMAT
  1
GRIDFORMAT_BEGIN
 90
        0
 91
        1
 62
     0
 92
       -2
340
14
 93
        0
 40
0.045
309
GRIDFORMAT_END
 95
        4
302
GRIDFORMAT
  1
GRIDFORMAT_BEGIN
 90
        0
 91
        1
 62
     0
 92
       -2
340
14
 93
        0
 40
0.045
309
GRIDFORMAT_END
 95
        8
302
GRIDFORMAT
  1
GRIDFORMAT_BEGIN
 90
        0
 91
        1
 62
     0
 92
       -2
340
14
 93
        0
 40
0.045
309
GRIDFORMAT_END
 95
       16
302
GRIDFORMAT
  1
GRIDFORMAT_BEGIN
 90
        0
 91
        1
 62
     0
 92
       -2
340
14
 93
        0
 40
0.045
309
GRIDFORMAT_END
 95
       32
302
GRIDFORMAT
  1
GRIDFORMAT_BEGIN
 90
        0
 91
        1
 62
     0
 92
       -2
340
14
 93
        0
 40
0.045
309
GRIDFORMAT_END
309
TABLEFORMAT_END
  1
CELLSTYLE_BEGIN
 90
        2
 91
        1
300
_HEADER
309
CELLSTYLE_END
300
CELLSTYLE
  1
TABLEFORMAT_BEGIN
 90
        5
170
     1
 91
        0
 92
        0
 62
   257
 93
        1
300
CONTENTFORMAT
  1
CONTENTFORMAT_BEGIN
 90
        0
 91
        0
 92
        4
 93
        0
300

 40
0.0
140
1.0
 94
        2
 62
     0
340
11
144
0.18
309
CONTENTFORMAT_END
171
     1
301
MARGIN
  1
CELLMARGIN_BEGIN
 40
0.06
 40
0.06
 40
0.06
 40
0.06
 40
0.06
 40
0.06
309
CELLMARGIN_END
 94
        6
 95
        1
302
GRIDFORMAT
  1
GRIDFORMAT_BEGIN
 90
        0
 91
        1
 62
     0
 92
       -2
340
14
 93
        0
 40
0.045
309
GRIDFORMAT_END
 95
        2
302
GRIDFORMAT
  1
GRIDFORMAT_BEGIN
 90
        0
 91
        1
 62
     0
 92
       -2
340
14
 93
        0
 40
0.045
309
GRIDFORMAT_END
 95
        4
302
GRIDFORMAT
  1
GRIDFORMAT_BEGIN
 90
        0
 91
        1
 62
     0
 92
       -2
340
14
 93
        0
 40
0.045
309
GRIDFORMAT_END
 95
        8
302
GRIDFORMAT
  1
GRIDFORMAT_BEGIN
 90
        0
 91
        1
 62
     0
 92
       -2
340
14
 93
        0
 40
0.045
309
GRIDFORMAT_END
 95
       16
302
GRIDFORMAT
  1
GRIDFORMAT_BEGIN
 90
        0
 91
        1
 62
     0
 92
       -2
340
14
 93
        0
 40
0.045
309
GRIDFORMAT_END
 95
       32
302
GRIDFORMAT
  1
GRIDFORMAT_BEGIN
 90
        0
 91
        1
 62
     0
 92
       -2
340
14
 93
        0
 40
0.045
309
GRIDFORMAT_END
309
TABLEFORMAT_END
  1
CELLSTYLE_BEGIN
 90
        3
 91
        2
300
_DATA
309
CELLSTYLE_END
  0
XRECORD
  5
410
102
{ACAD_REACTORS
330
40F
102
}
330
40F
100
AcDbXrecord
280
     1
102
ACAD_ROUNDTRIP_PRE2007_TABLESTYLE
 90
        4
 91
        0
  1

 92
        4
 93
        0
  2

 94
        4
 95
        0
  3

  0
XRECORD
  5
3E2
102
{ACAD_REACTORS
330
3E1
102
}
330
3E1
100
AcDbXrecord
280
     1
102
RTVSPropertyOp0
 70
     1
102
RTVSPropertyOp1
 70
     1
102
RTVSPropertyOp2
 70
     1
102
RTVSPropertyOp3
 70
     1
102
RTVSPropertyOp4
 70
     1
102
RTVSPropertyOp5
 70
     1
102
RTVSPropertyOp6
 70
     1
102
RTVSPropertyOp7
 70
     1
102
RTVSPropertyOp8
 70
     1
102
RTVSPropertyOp9
 70
     1
102
RTVSPropertyOp10
 70
     1
102
RTVSPropertyOp11
 70
     1
102
RTVSPropertyOp12
 70
     1
102
RTVSPropertyOp13
 70
     1
102
RTVSPropertyOp14
 70
     1
102
RTVSPropertyOp15
 70
     1
102
RTVSPropertyOp16
 70
     1
102
RTVSPropertyOp17
 70
     1
102
RTVSPropertyOp18
 70
     1
102
RTVSPropertyOp19
 70
     1
102
RTVSPropertyOp20
 70
     1
102
RTVSPropertyOp21
 70
     1
102
RTVSPropertyOp22
 70
     1
102
RTVSPropertyOp23
 70
     1
102
RTVSPropertyOp24
 70
     1
102
RTVSPropertyOp25
 70
     1
102
RTVSPropertyOp26
 70
     1
102
RTVSPropertyOp27
 70
     1
102
RTVSPropertyOp28
 70
     1
102
RTVSPropertyOp29
 70
     1
102
RTVSPropertyOp30
 70
     1
102
RTVSPropertyOp31
 70
     1
102
RTVSPropertyOp32
 70
     1
102
RTVSPropertyOp33
 70
     1
102
RTVSPropertyOp34
 70
     1
102
RTVSPropertyOp35
 70
     1
102
RTVSPropertyOp36
 70
     1
102
RTVSPropertyOp37
 70
     1
102
RTVSPropertyOp38
 70
     1
102
RTVSPropertyOp39
 70
     1
102
RTVSPropertyOp40
 70
     1
102
RTVSPropertyOp41
 70
     1
102
RTVSPropertyOp42
 70
     1
102
RTVSPropertyOp43
 70
     1
102
RTVSPropertyOp44
 70
     1
102
RTVSPropertyOp45
 70
     1
102
RTVSPropertyOp46
 70
     1
102
RTVSPropertyOp47
 70
     1
102
RTVSPropertyOp48
 70
     1
102
RTVSPropertyOp49
 70
     1
102
RTVSPropertyOp50
 70
     1
102
RTVSPropertyOp51
 70
     0
102
RTVSPropertyOp52
 70
     0
102
RTVSPropertyOp53
 70
     1
102
RTVSPropertyOp54
 70
     1
102
RTVSPropertyOp55
 70
     1
102
RTVSPropertyOp56
 70
     1
102
RTVSPropertyOp57
 70
     1
102
RTVSPost2010Prop28
280
     1
102
RTVSPost2010PropOp28
 70
     1
102
RTVSPost2010Prop29
280
     1
102
RTVSPost2010PropOp29
 70
     1
102
RTVSPost2010Prop30
280
     0
102
RTVSPost2010PropOp30
 70
     1
102
RTVSPost2010Prop31
280
     0
102
RTVSPost2010PropOp31
 70
     1
102
RTVSPost2010Prop32
280
     0
102
RTVSPost2010PropOp32
 70
     1
102
RTVSPost2010Prop33
280
     0
102
RTVSPost2010PropOp33
 70
     1
102
RTVSPost2010Prop34
280
     0
102
RTVSPost2010PropOp34
 70
     1
102
RTVSPost2010Prop35
280
     0
102
RTVSPost2010PropOp35
 70
     1
102
RTVSPost2010Prop36
280
     0
102
RTVSPost2010PropOp36
 70
     1
102
RTVSPost2010Prop37
 90
       50
102
RTVSPost2010PropOp37
 70
     1
102
RTVSPost2010Prop38
140
0.0
102
RTVSPost2010PropOp38
 70
     1
102
RTVSPost2010Prop39
140
1.0
102
RTVSPost2010PropOp39
 70
     1
102
RTVSPost2010Prop40
 90
        0
102
RTVSPost2010PropOp40
 70
     1
102
RTVSPost2010Prop41ColorIndex
 90
       18
102
RTVSPost2010Prop41ColorRGB
 90
        0
102
RTVSPost2010PropOp41
 70
     1
102
RTVSPost2010Prop42
 90
       50
102
RTVSPost2010PropOp42
 70
     1
102
RTVSPost2010Prop43
 90
        3
102
RTVSPost2010PropOp43
 70
     1
102
RTVSPost2010Prop44ColorIndex
 90
        5
102
RTVSPost2010Prop44ColorRGB
 90
      255
102
RTVSPost2010PropOp44
 70
     1
102
RTVSPost2010Prop45
280
     0
102
RTVSPost2010PropOp45
 70
     1
102
RTVSPost2010Prop46
 90
       50
102
RTVSPost2010PropOp46
 70
     1
102
RTVSPost2010Prop47
 90
       50
102
RTVSPost2010PropOp47
 70
     1
102
RTVSPost2010Prop48
 90
       50
102
RTVSPost2010PropOp48
 70
     1
102
RTVSPost2010Prop49
280
     0
102
RTVSPost2010PropOp49
 70
     1
102
RTVSPost2010Prop50
 90
       50
102
RTVSPost2010PropOp50
 70
     1
102
RTVSPost2010Prop51ColorIndex
 90
      256
102
RTVSPost2010Prop51ColorRGB
 90
-16777216
102
RTVSPost2010PropOp51
 70
     0
102
RTVSPost2010Prop52
140
1.0
102
RTVSPost2010PropOp52
 70
     0
102
RTVSPost2010Prop53
 90
        2
102
RTVSPost2010PropOp53
 70
     1
102
RTVSPost2010Prop54
  1
strokes_ogs.tif
102
RTVSPost2010PropOp54
 70
     1
102
RTVSPost2010Prop55
280
     0
102
RTVSPost2010PropOp55
 70
     1
102
RTVSPost2010Prop56
140
1.0
102
RTVSPost2010PropOp56
 70
     1
102
RTVSPost2010Prop57
140
1.0
102
RTVSPost2010PropOp57
 70
     1
  0
XRECORD
  5
3E8
102
{ACAD_REACTORS
330
3E7
102
}
330
3E7
100
AcDbXrecord
280
     1
102
RTVSPropertyOp0
 70
     1
102
RTVSPropertyOp1
 70
     1
102
RTVSPropertyOp2
 70
     1
102
RTVSPropertyOp3
 70
     1
102
RTVSPropertyOp4
 70
     1
102
RTVSPropertyOp5
 70
     1
102
RTVSPropertyOp6
 70
     1
102
RTVSPropertyOp7
 70
     1
102
RTVSPropertyOp8
 70
     1
102
RTVSPropertyOp9
 70
     1
102
RTVSPropertyOp10
 70
     1
102
RTVSPropertyOp11
 70
     1
102
RTVSPropertyOp12
 70
     1
102
RTVSPropertyOp13
 70
     1
102
RTVSPropertyOp14
 70
     1
102
RTVSPropertyOp15
 70
     1
102
RTVSPropertyOp16
 70
     1
102
RTVSPropertyOp17
 70
     1
102
RTVSPropertyOp18
 70
     1
102
RTVSPropertyOp19
 70
     1
102
RTVSPropertyOp20
 70
     1
102
RTVSPropertyOp21
 70
     1
102
RTVSPropertyOp22
 70
     1
102
RTVSPropertyOp23
 70
     1
102
RTVSPropertyOp24
 70
     1
102
RTVSPropertyOp25
 70
     1
102
RTVSPropertyOp26
 70
     1
102
RTVSPropertyOp27
 70
     1
102
RTVSPropertyOp28
 70
     1
102
RTVSPropertyOp29
 70
     1
102
RTVSPropertyOp30
 70
     1
102
RTVSPropertyOp31
 70
     1
102
RTVSPropertyOp32
 70
     1
102
RTVSPropertyOp33
 70
     1
102
RTVSPropertyOp34
 70
     1
102
RTVSPropertyOp35
 70
     1
102
RTVSPropertyOp36
 70
     1
102
RTVSPropertyOp37
 70
     1
102
RTVSPropertyOp38
 70
     1
102
RTVSPropertyOp39
 70
     1
102
RTVSPropertyOp40
 70
     1
102
RTVSPropertyOp41
 70
     1
102
RTVSPropertyOp42
 70
     1
102
RTVSPropertyOp43
 70
     1
102
RTVSPropertyOp44
 70
     1
102
RTVSPropertyOp45
 70
     1
102
RTVSPropertyOp46
 70
     1
102
RTVSPropertyOp47
 70
     1
102
RTVSPropertyOp48
 70
     1
102
RTVSPropertyOp49
 70
     1
102
RTVSPropertyOp50
 70
     1
102
RTVSPropertyOp51
 70
     0
102
RTVSPropertyOp52
 70
     0
102
RTVSPropertyOp53
 70
     1
102
RTVSPropertyOp54
 70
     1
102
RTVSPropertyOp55
 70
     1
102
RTVSPropertyOp56
 70
     1
102
RTVSPropertyOp57
 70
     1
102
RTVSPost2010Prop28
280
     0
102
RTVSPost2010PropOp28
 70
     1
102
RTVSPost2010Prop29
280
     1
102
RTVSPost2010PropOp29
 70
     1
102
RTVSPost2010Prop30
280
     1
102
RTVSPost2010PropOp30
 70
     1
102
RTVSPost2010Prop31
280
     0
102
RTVSPost2010PropOp31
 70
     1
102
RTVSPost2010Prop32
280
     0
102
RTVSPost2010PropOp32
 70
     1
102
RTVSPost2010Prop33
280
     0
102
RTVSPost2010PropOp33
 70
     1
102
RTVSPost2010Prop34
280
     0
102
RTVSPost2010PropOp34
 70
     1
102
RTVSPost2010Prop35
280
     0
102
RTVSPost2010PropOp35
 70
     1
102
RTVSPost2010Prop36
280
     0
102
RTVSPost2010PropOp36
 70
     1
102
RTVSPost2010Prop37
 90
       50
102
RTVSPost2010PropOp37
 70
     1
102
RTVSPost2010Prop38
140
0.0
102
RTVSPost2010PropOp38
 70
     1
102
RTVSPost2010Prop39
140
1.0
102
RTVSPost2010PropOp39
 70
     1
102
RTVSPost2010Prop40
 90
        0
102
RTVSPost2010PropOp40
 70
     1
102
RTVSPost2010Prop41ColorIndex
 90
       18
102
RTVSPost2010Prop41ColorRGB
 90
        0
102
RTVSPost2010PropOp41
 70
     1
102
RTVSPost2010Prop42
 90
       50
102
RTVSPost2010PropOp42
 70
     1
102
RTVSPost2010Prop43
 90
        3
102
RTVSPost2010PropOp43
 70
     1
102
RTVSPost2010Prop44ColorIndex
 90
        5
102
RTVSPost2010Prop44ColorRGB
 90
      255
102
RTVSPost2010PropOp44
 70
     1
102
RTVSPost2010Prop45
280
     0
102
RTVSPost2010PropOp45
 70
     1
102
RTVSPost2010Prop46
 90
       50
102
RTVSPost2010PropOp46
 70
     1
102
RTVSPost2010Prop47
 90
       50
102
RTVSPost2010PropOp47
 70
     1
102
RTVSPost2010Prop48
 90
       50
102
RTVSPost2010PropOp48
 70
     1
102
RTVSPost2010Prop49
280
     0
102
RTVSPost2010PropOp49
 70
     1
102
RTVSPost2010Prop50
 90
       50
102
RTVSPost2010PropOp50
 70
     1
102
RTVSPost2010Prop51ColorIndex
 90
      256
102
RTVSPost2010Prop51ColorRGB
 90
-16777216
102
RTVSPost2010PropOp51
 70
     0
102
RTVSPost2010Prop52
140
1.0
102
RTVSPost2010PropOp52
 70
     0
102
RTVSPost2010Prop53
 90
        2
102
RTVSPost2010PropOp53
 70
     1
102
RTVSPost2010Prop54
  1
strokes_ogs.tif
102
RTVSPost2010PropOp54
 70
     1
102
RTVSPost2010Prop55
280
     0
102
RTVSPost2010PropOp55
 70
     1
102
RTVSPost2010Prop56
140
1.0
102
RTVSPost2010PropOp56
 70
     1
102
RTVSPost2010Prop57
140
1.0
102
RTVSPost2010PropOp57
 70
     1
  0
XRECORD
  5
3F0
102
{ACAD_REACTORS
330
3EF
102
}
330
3EF
100
AcDbXrecord
280
     1
102
RTVSPropertyOp0
 70
     1
102
RTVSPropertyOp1
 70
     1
102
RTVSPropertyOp2
 70
     1
102
RTVSPropertyOp3
 70
     1
102
RTVSPropertyOp4
 70
     1
102
RTVSPropertyOp5
 70
     1
102
RTVSPropertyOp6
 70
     1
102
RTVSPropertyOp7
 70
     1
102
RTVSPropertyOp8
 70
     1
102
RTVSPropertyOp9
 70
     1
102
RTVSPropertyOp10
 70
     1
102
RTVSPropertyOp11
 70
     1
102
RTVSPropertyOp12
 70
     1
102
RTVSPropertyOp13
 70
     1
102
RTVSPropertyOp14
 70
     1
102
RTVSPropertyOp15
 70
     1
102
RTVSPropertyOp16
 70
     1
102
RTVSPropertyOp17
 70
     1
102
RTVSPropertyOp18
 70
     1
102
RTVSPropertyOp19
 70
     1
102
RTVSPropertyOp20
 70
     1
102
RTVSPropertyOp21
 70
     1
102
RTVSPropertyOp22
 70
     1
102
RTVSPropertyOp23
 70
     1
102
RTVSPropertyOp24
 70
     1
102
RTVSPropertyOp25
 70
     1
102
RTVSPropertyOp26
 70
     1
102
RTVSPropertyOp27
 70
     1
102
RTVSPropertyOp28
 70
     1
102
RTVSPropertyOp29
 70
     1
102
RTVSPropertyOp30
 70
     1
102
RTVSPropertyOp31
 70
     1
102
RTVSPropertyOp32
 70
     1
102
RTVSPropertyOp33
 70
     1
102
RTVSPropertyOp34
 70
     1
102
RTVSPropertyOp35
 70
     1
102
RTVSPropertyOp36
 70
     1
102
RTVSPropertyOp37
 70
     1
102
RTVSPropertyOp38
 70
     1
102
RTVSPropertyOp39
 70
     1
102
RTVSPropertyOp40
 70
     1
102
RTVSPropertyOp41
 70
     1
102
RTVSPropertyOp42
 70
     1
102
RTVSPropertyOp43
 70
     1
102
RTVSPropertyOp44
 70
     1
102
RTVSPropertyOp45
 70
     1
102
RTVSPropertyOp46
 70
     1
102
RTVSPropertyOp47
 70
     1
102
RTVSPropertyOp48
 70
     1
102
RTVSPropertyOp49
 70
     1
102
RTVSPropertyOp50
 70
     1
102
RTVSPropertyOp51
 70
     0
102
RTVSPropertyOp52
 70
     0
102
RTVSPropertyOp53
 70
     1
102
RTVSPropertyOp54
 70
     1
102
RTVSPropertyOp55
 70
     1
102
RTVSPropertyOp56
 70
     1
102
RTVSPropertyOp57
 70
     1
102
RTVSPost2010Prop28
280
     0
102
RTVSPost2010PropOp28
 70
     1
102
RTVSPost2010Prop29
280
     1
102
RTVSPost2010PropOp29
 70
     1
102
RTVSPost2010Prop30
280
     1
102
RTVSPost2010PropOp30
 70
     1
102
RTVSPost2010Prop31
280
     0
102
RTVSPost2010PropOp31
 70
     1
102
RTVSPost2010Prop32
280
     0
102
RTVSPost2010PropOp32
 70
     1
102
RTVSPost2010Prop33
280
     0
102
RTVSPost2010PropOp33
 70
     1
102
RTVSPost2010Prop34
280
     0
102
RTVSPost2010PropOp34
 70
     1
102
RTVSPost2010Prop35
280
     0
102
RTVSPost2010PropOp35
 70
     1
102
RTVSPost2010Prop36
280
     0
102
RTVSPost2010PropOp36
 70
     1
102
RTVSPost2010Prop37
 90
       50
102
RTVSPost2010PropOp37
 70
     1
102
RTVSPost2010Prop38
140
0.0
102
RTVSPost2010PropOp38
 70
     1
102
RTVSPost2010Prop39
140
1.0
102
RTVSPost2010PropOp39
 70
     1
102
RTVSPost2010Prop40
 90
        0
102
RTVSPost2010PropOp40
 70
     1
102
RTVSPost2010Prop41ColorIndex
 90
       18
102
RTVSPost2010Prop41ColorRGB
 90
        0
102
RTVSPost2010PropOp41
 70
     1
102
RTVSPost2010Prop42
 90
       50
102
RTVSPost2010PropOp42
 70
     1
102
RTVSPost2010Prop43
 90
        3
102
RTVSPost2010PropOp43
 70
     1
102
RTVSPost2010Prop44ColorIndex
 90
        5
102
RTVSPost2010Prop44ColorRGB
 90
      255
102
RTVSPost2010PropOp44
 70
     1
102
RTVSPost2010Prop45
280
     0
102
RTVSPost2010PropOp45
 70
     1
102
RTVSPost2010Prop46
 90
       50
102
RTVSPost2010PropOp46
 70
     1
102
RTVSPost2010Prop47
 90
       50
102
RTVSPost2010PropOp47
 70
     1
102
RTVSPost2010Prop48
 90
       50
102
RTVSPost2010PropOp48
 70
     1
102
RTVSPost2010Prop49
280
     0
102
RTVSPost2010PropOp49
 70
     1
102
RTVSPost2010Prop50
 90
       50
102
RTVSPost2010PropOp50
 70
     1
102
RTVSPost2010Prop51ColorIndex
 90
      256
102
RTVSPost2010Prop51ColorRGB
 90
-16777216
102
RTVSPost2010PropOp51
 70
     0
102
RTVSPost2010Prop52
140
1.0
102
RTVSPost2010PropOp52
 70
     0
102
RTVSPost2010Prop53
 90
        2
102
RTVSPost2010PropOp53
 70
     1
102
RTVSPost2010Prop54
  1
strokes_ogs.tif
102
RTVSPost2010PropOp54
 70
     1
102
RTVSPost2010Prop55
280
     0
102
RTVSPost2010PropOp55
 70
     1
102
RTVSPost2010Prop56
140
1.0
102
RTVSPost2010PropOp56
 70
     1
102
RTVSPost2010Prop57
140
1.0
102
RTVSPost2010PropOp57
 70
     1
  0
XRECORD
  5
3F8
102
{ACAD_REACTORS
330
3F7
102
}
330
3F7
100
AcDbXrecord
280
     1
102
RTVSPropertyOp0
 70
     1
102
RTVSPropertyOp1
 70
     1
102
RTVSPropertyOp2
 70
     1
102
RTVSPropertyOp3
 70
     1
102
RTVSPropertyOp4
 70
     1
102
RTVSPropertyOp5
 70
     1
102
RTVSPropertyOp6
 70
     1
102
RTVSPropertyOp7
 70
     1
102
RTVSPropertyOp8
 70
     1
102
RTVSPropertyOp9
 70
     1
102
RTVSPropertyOp10
 70
     1
102
RTVSPropertyOp11
 70
     1
102
RTVSPropertyOp12
 70
     1
102
RTVSPropertyOp13
 70
     1
102
RTVSPropertyOp14
 70
     1
102
RTVSPropertyOp15
 70
     1
102
RTVSPropertyOp16
 70
     1
102
RTVSPropertyOp17
 70
     1
102
RTVSPropertyOp18
 70
     1
102
RTVSPropertyOp19
 70
     1
102
RTVSPropertyOp20
 70
     1
102
RTVSPropertyOp21
 70
     1
102
RTVSPropertyOp22
 70
     1
102
RTVSPropertyOp23
 70
     1
102
RTVSPropertyOp24
 70
     1
102
RTVSPropertyOp25
 70
     1
102
RTVSPropertyOp26
 70
     1
102
RTVSPropertyOp27
 70
     1
102
RTVSPropertyOp28
 70
     1
102
RTVSPropertyOp29
 70
     1
102
RTVSPropertyOp30
 70
     1
102
RTVSPropertyOp31
 70
     1
102
RTVSPropertyOp32
 70
     1
102
RTVSPropertyOp33
 70
     1
102
RTVSPropertyOp34
 70
     1
102
RTVSPropertyOp35
 70
     1
102
RTVSPropertyOp36
 70
     1
102
RTVSPropertyOp37
 70
     1
102
RTVSPropertyOp38
 70
     1
102
RTVSPropertyOp39
 70
     1
102
RTVSPropertyOp40
 70
     1
102
RTVSPropertyOp41
 70
     1
102
RTVSPropertyOp42
 70
     1
102
RTVSPropertyOp43
 70
     1
102
RTVSPropertyOp44
 70
     1
102
RTVSPropertyOp45
 70
     1
102
RTVSPropertyOp46
 70
     1
102
RTVSPropertyOp47
 70
     1
102
RTVSPropertyOp48
 70
     1
102
RTVSPropertyOp49
 70
     1
102
RTVSPropertyOp50
 70
     1
102
RTVSPropertyOp51
 70
     0
102
RTVSPropertyOp52
 70
     0
102
RTVSPropertyOp53
 70
     1
102
RTVSPropertyOp54
 70
     1
102
RTVSPropertyOp55
 70
     1
102
RTVSPropertyOp56
 70
     1
102
RTVSPropertyOp57
 70
     1
102
RTVSPost2010Prop28
280
     0
102
RTVSPost2010PropOp28
 70
     1
102
RTVSPost2010Prop29
280
     1
102
RTVSPost2010PropOp29
 70
     1
102
RTVSPost2010Prop30
280
     1
102
RTVSPost2010PropOp30
 70
     1
102
RTVSPost2010Prop31
280
     0
102
RTVSPost2010PropOp31
 70
     1
102
RTVSPost2010Prop32
280
     0
102
RTVSPost2010PropOp32
 70
     1
102
RTVSPost2010Prop33
280
     0
102
RTVSPost2010PropOp33
 70
     1
102
RTVSPost2010Prop34
280
     0
102
RTVSPost2010PropOp34
 70
     1
102
RTVSPost2010Prop35
280
     0
102
RTVSPost2010PropOp35
 70
     1
102
RTVSPost2010Prop36
280
     0
102
RTVSPost2010PropOp36
 70
     1
102
RTVSPost2010Prop37
 90
       50
102
RTVSPost2010PropOp37
 70
     1
102
RTVSPost2010Prop38
140
0.0
102
RTVSPost2010PropOp38
 70
     1
102
RTVSPost2010Prop39
140
1.0
102
RTVSPost2010PropOp39
 70
     1
102
RTVSPost2010Prop40
 90
        0
102
RTVSPost2010PropOp40
 70
     1
102
RTVSPost2010Prop41ColorIndex
 90
       18
102
RTVSPost2010Prop41ColorRGB
 90
        0
102
RTVSPost2010PropOp41
 70
     1
102
RTVSPost2010Prop42
 90
       50
102
RTVSPost2010PropOp42
 70
     1
102
RTVSPost2010Prop43
 90
        3
102
RTVSPost2010PropOp43
 70
     1
102
RTVSPost2010Prop44ColorIndex
 90
        5
102
RTVSPost2010Prop44ColorRGB
 90
      255
102
RTVSPost2010PropOp44
 70
     1
102
RTVSPost2010Prop45
280
     0
102
RTVSPost2010PropOp45
 70
     1
102
RTVSPost2010Prop46
 90
       50
102
RTVSPost2010PropOp46
 70
     1
102
RTVSPost2010Prop47
 90
       50
102
RTVSPost2010PropOp47
 70
     1
102
RTVSPost2010Prop48
 90
       50
102
RTVSPost2010PropOp48
 70
     1
102
RTVSPost2010Prop49
280
     0
102
RTVSPost2010PropOp49
 70
     1
102
RTVSPost2010Prop50
 90
       50
102
RTVSPost2010PropOp50
 70
     1
102
RTVSPost2010Prop51ColorIndex
 90
      256
102
RTVSPost2010Prop51ColorRGB
 90
-16777216
102
RTVSPost2010PropOp51
 70
     0
102
RTVSPost2010Prop52
140
1.0
102
RTVSPost2010PropOp52
 70
     0
102
RTVSPost2010Prop53
 90
        2
102
RTVSPost2010PropOp53
 70
     1
102
RTVSPost2010Prop54
  1
strokes_ogs.tif
102
RTVSPost2010PropOp54
 70
     1
102
RTVSPost2010Prop55
280
     0
102
RTVSPost2010PropOp55
 70
     1
102
RTVSPost2010Prop56
140
1.0
102
RTVSPost2010PropOp56
 70
     1
102
RTVSPost2010Prop57
140
1.0
102
RTVSPost2010PropOp57
 70
     1
  0
XRECORD
  5
3EC
102
{ACAD_REACTORS
330
3EB
102
}
330
3EB
100
AcDbXrecord
280
     1
102
RTVSPropertyOp0
 70
     1
102
RTVSPropertyOp1
 70
     1
102
RTVSPropertyOp2
 70
     1
102
RTVSPropertyOp3
 70
     1
102
RTVSPropertyOp4
 70
     1
102
RTVSPropertyOp5
 70
     1
102
RTVSPropertyOp6
 70
     1
102
RTVSPropertyOp7
 70
     1
102
RTVSPropertyOp8
 70
     1
102
RTVSPropertyOp9
 70
     1
102
RTVSPropertyOp10
 70
     1
102
RTVSPropertyOp11
 70
     1
102
RTVSPropertyOp12
 70
     1
102
RTVSPropertyOp13
 70
     1
102
RTVSPropertyOp14
 70
     1
102
RTVSPropertyOp15
 70
     1
102
RTVSPropertyOp16
 70
     1
102
RTVSPropertyOp17
 70
     1
102
RTVSPropertyOp18
 70
     1
102
RTVSPropertyOp19
 70
     1
102
RTVSPropertyOp20
 70
     1
102
RTVSPropertyOp21
 70
     1
102
RTVSPropertyOp22
 70
     1
102
RTVSPropertyOp23
 70
     1
102
RTVSPropertyOp24
 70
     1
102
RTVSPropertyOp25
 70
     1
102
RTVSPropertyOp26
 70
     1
102
RTVSPropertyOp27
 70
     1
102
RTVSPropertyOp28
 70
     1
102
RTVSPropertyOp29
 70
     1
102
RTVSPropertyOp30
 70
     1
102
RTVSPropertyOp31
 70
     1
102
RTVSPropertyOp32
 70
     1
102
RTVSPropertyOp33
 70
     1
102
RTVSPropertyOp34
 70
     1
102
RTVSPropertyOp35
 70
     1
102
RTVSPropertyOp36
 70
     1
102
RTVSPropertyOp37
 70
     1
102
RTVSPropertyOp38
 70
     1
102
RTVSPropertyOp39
 70
     1
102
RTVSPropertyOp40
 70
     1
102
RTVSPropertyOp41
 70
     1
102
RTVSPropertyOp42
 70
     1
102
RTVSPropertyOp43
 70
     1
102
RTVSPropertyOp44
 70
     1
102
RTVSPropertyOp45
 70
     1
102
RTVSPropertyOp46
 70
     1
102
RTVSPropertyOp47
 70
     1
102
RTVSPropertyOp48
 70
     1
102
RTVSPropertyOp49
 70
     1
102
RTVSPropertyOp50
 70
     1
102
RTVSPropertyOp51
 70
     0
102
RTVSPropertyOp52
 70
     0
102
RTVSPropertyOp53
 70
     1
102
RTVSPropertyOp54
 70
     1
102
RTVSPropertyOp55
 70
     1
102
RTVSPropertyOp56
 70
     1
102
RTVSPropertyOp57
 70
     1
102
RTVSPost2010Prop28
280
     0
102
RTVSPost2010PropOp28
 70
     1
102
RTVSPost2010Prop29
280
     1
102
RTVSPost2010PropOp29
 70
     1
102
RTVSPost2010Prop30
280
     1
102
RTVSPost2010PropOp30
 70
     1
102
RTVSPost2010Prop31
280
     0
102
RTVSPost2010PropOp31
 70
     1
102
RTVSPost2010Prop32
280
     0
102
RTVSPost2010PropOp32
 70
     1
102
RTVSPost2010Prop33
280
     0
102
RTVSPost2010PropOp33
 70
     1
102
RTVSPost2010Prop34
280
     0
102
RTVSPost2010PropOp34
 70
     1
102
RTVSPost2010Prop35
280
     0
102
RTVSPost2010PropOp35
 70
     1
102
RTVSPost2010Prop36
280
     0
102
RTVSPost2010PropOp36
 70
     1
102
RTVSPost2010Prop37
 90
       50
102
RTVSPost2010PropOp37
 70
     1
102
RTVSPost2010Prop38
140
0.0
102
RTVSPost2010PropOp38
 70
     1
102
RTVSPost2010Prop39
140
1.0
102
RTVSPost2010PropOp39
 70
     1
102
RTVSPost2010Prop40
 90
        0
102
RTVSPost2010PropOp40
 70
     1
102
RTVSPost2010Prop41ColorIndex
 90
       18
102
RTVSPost2010Prop41ColorRGB
 90
        0
102
RTVSPost2010PropOp41
 70
     1
102
RTVSPost2010Prop42
 90
       50
102
RTVSPost2010PropOp42
 70
     1
102
RTVSPost2010Prop43
 90
        3
102
RTVSPost2010PropOp43
 70
     1
102
RTVSPost2010Prop44ColorIndex
 90
        5
102
RTVSPost2010Prop44ColorRGB
 90
      255
102
RTVSPost2010PropOp44
 70
     1
102
RTVSPost2010Prop45
280
     0
102
RTVSPost2010PropOp45
 70
     1
102
RTVSPost2010Prop46
 90
       50
102
RTVSPost2010PropOp46
 70
     1
102
RTVSPost2010Prop47
 90
       50
102
RTVSPost2010PropOp47
 70
     1
102
RTVSPost2010Prop48
 90
       50
102
RTVSPost2010PropOp48
 70
     1
102
RTVSPost2010Prop49
280
     0
102
RTVSPost2010PropOp49
 70
     1
102
RTVSPost2010Prop50
 90
       50
102
RTVSPost2010PropOp50
 70
     1
102
RTVSPost2010Prop51ColorIndex
 90
      256
102
RTVSPost2010Prop51ColorRGB
 90
-16777216
102
RTVSPost2010PropOp51
 70
     0
102
RTVSPost2010Prop52
140
1.0
102
RTVSPost2010PropOp52
 70
     0
102
RTVSPost2010Prop53
 90
        2
102
RTVSPost2010PropOp53
 70
     1
102
RTVSPost2010Prop54
  1
strokes_ogs.tif
102
RTVSPost2010PropOp54
 70
     1
102
RTVSPost2010Prop55
280
     0
102
RTVSPost2010PropOp55
 70
     1
102
RTVSPost2010Prop56
140
1.0
102
RTVSPost2010PropOp56
 70
     1
102
RTVSPost2010Prop57
140
1.0
102
RTVSPost2010PropOp57
 70
     1
  0
XRECORD
  5
3EE
102
{ACAD_REACTORS
330
3ED
102
}
330
3ED
100
AcDbXrecord
280
     1
102
RTVSPropertyOp0
 70
     1
102
RTVSPropertyOp1
 70
     1
102
RTVSPropertyOp2
 70
     1
102
RTVSPropertyOp3
 70
     1
102
RTVSPropertyOp4
 70
     1
102
RTVSPropertyOp5
 70
     1
102
RTVSPropertyOp6
 70
     1
102
RTVSPropertyOp7
 70
     1
102
RTVSPropertyOp8
 70
     1
102
RTVSPropertyOp9
 70
     1
102
RTVSPropertyOp10
 70
     1
102
RTVSPropertyOp11
 70
     1
102
RTVSPropertyOp12
 70
     1
102
RTVSPropertyOp13
 70
     1
102
RTVSPropertyOp14
 70
     1
102
RTVSPropertyOp15
 70
     1
102
RTVSPropertyOp16
 70
     1
102
RTVSPropertyOp17
 70
     1
102
RTVSPropertyOp18
 70
     1
102
RTVSPropertyOp19
 70
     1
102
RTVSPropertyOp20
 70
     1
102
RTVSPropertyOp21
 70
     1
102
RTVSPropertyOp22
 70
     1
102
RTVSPropertyOp23
 70
     1
102
RTVSPropertyOp24
 70
     1
102
RTVSPropertyOp25
 70
     1
102
RTVSPropertyOp26
 70
     1
102
RTVSPropertyOp27
 70
     1
102
RTVSPropertyOp28
 70
     1
102
RTVSPropertyOp29
 70
     1
102
RTVSPropertyOp30
 70
     1
102
RTVSPropertyOp31
 70
     1
102
RTVSPropertyOp32
 70
     1
102
RTVSPropertyOp33
 70
     1
102
RTVSPropertyOp34
 70
     1
102
RTVSPropertyOp35
 70
     1
102
RTVSPropertyOp36
 70
     1
102
RTVSPropertyOp37
 70
     1
102
RTVSPropertyOp38
 70
     1
102
RTVSPropertyOp39
 70
     1
102
RTVSPropertyOp40
 70
     1
102
RTVSPropertyOp41
 70
     1
102
RTVSPropertyOp42
 70
     1
102
RTVSPropertyOp43
 70
     1
102
RTVSPropertyOp44
 70
     1
102
RTVSPropertyOp45
 70
     1
102
RTVSPropertyOp46
 70
     1
102
RTVSPropertyOp47
 70
     1
102
RTVSPropertyOp48
 70
     1
102
RTVSPropertyOp49
 70
     1
102
RTVSPropertyOp50
 70
     1
102
RTVSPropertyOp51
 70
     0
102
RTVSPropertyOp52
 70
     0
102
RTVSPropertyOp53
 70
     1
102
RTVSPropertyOp54
 70
     1
102
RTVSPropertyOp55
 70
     1
102
RTVSPropertyOp56
 70
     1
102
RTVSPropertyOp57
 70
     1
102
RTVSPost2010Prop28
280
     0
102
RTVSPost2010PropOp28
 70
     1
102
RTVSPost2010Prop29
280
     1
102
RTVSPost2010PropOp29
 70
     1
102
RTVSPost2010Prop30
280
     1
102
RTVSPost2010PropOp30
 70
     1
102
RTVSPost2010Prop31
280
     0
102
RTVSPost2010PropOp31
 70
     1
102
RTVSPost2010Prop32
280
     0
102
RTVSPost2010PropOp32
 70
     1
102
RTVSPost2010Prop33
280
     0
102
RTVSPost2010PropOp33
 70
     1
102
RTVSPost2010Prop34
280
     0
102
RTVSPost2010PropOp34
 70
     1
102
RTVSPost2010Prop35
280
     0
102
RTVSPost2010PropOp35
 70
     1
102
RTVSPost2010Prop36
280
     0
102
RTVSPost2010PropOp36
 70
     1
102
RTVSPost2010Prop37
 90
       50
102
RTVSPost2010PropOp37
 70
     1
102
RTVSPost2010Prop38
140
0.0
102
RTVSPost2010PropOp38
 70
     1
102
RTVSPost2010Prop39
140
1.0
102
RTVSPost2010PropOp39
 70
     1
102
RTVSPost2010Prop40
 90
        0
102
RTVSPost2010PropOp40
 70
     1
102
RTVSPost2010Prop41ColorIndex
 90
       18
102
RTVSPost2010Prop41ColorRGB
 90
        0
102
RTVSPost2010PropOp41
 70
     1
102
RTVSPost2010Prop42
 90
       50
102
RTVSPost2010PropOp42
 70
     1
102
RTVSPost2010Prop43
 90
        3
102
RTVSPost2010PropOp43
 70
     1
102
RTVSPost2010Prop44ColorIndex
 90
        5
102
RTVSPost2010Prop44ColorRGB
 90
      255
102
RTVSPost2010PropOp44
 70
     1
102
RTVSPost2010Prop45
280
     0
102
RTVSPost2010PropOp45
 70
     1
102
RTVSPost2010Prop46
 90
       50
102
RTVSPost2010PropOp46
 70
     1
102
RTVSPost2010Prop47
 90
       50
102
RTVSPost2010PropOp47
 70
     1
102
RTVSPost2010Prop48
 90
       50
102
RTVSPost2010PropOp48
 70
     1
102
RTVSPost2010Prop49
280
     0
102
RTVSPost2010PropOp49
 70
     1
102
RTVSPost2010Prop50
 90
       50
102
RTVSPost2010PropOp50
 70
     1
102
RTVSPost2010Prop51ColorIndex
 90
      256
102
RTVSPost2010Prop51ColorRGB
 90
-16777216
102
RTVSPost2010PropOp51
 70
     0
102
RTVSPost2010Prop52
140
1.0
102
RTVSPost2010PropOp52
 70
     0
102
RTVSPost2010Prop53
 90
        2
102
RTVSPost2010PropOp53
 70
     1
102
RTVSPost2010Prop54
  1
strokes_ogs.tif
102
RTVSPost2010PropOp54
 70
     1
102
RTVSPost2010Prop55
280
     0
102
RTVSPost2010PropOp55
 70
     1
102
RTVSPost2010Prop56
140
1.0
102
RTVSPost2010PropOp56
 70
     1
102
RTVSPost2010Prop57
140
1.0
102
RTVSPost2010PropOp57
 70
     1
  0
XRECORD
  5
3FE
102
{ACAD_REACTORS
330
3FD
102
}
330
3FD
100
AcDbXrecord
280
     1
102
RTVSPropertyOp0
 70
     0
102
RTVSPropertyOp1
 70
     0
102
RTVSPropertyOp2
 70
     0
102
RTVSPropertyOp3
 70
     0
102
RTVSPropertyOp4
 70
     0
102
RTVSPropertyOp5
 70
     0
102
RTVSPropertyOp6
 70
     0
102
RTVSPropertyOp7
 70
     0
102
RTVSPropertyOp8
 70
     0
102
RTVSPropertyOp9
 70
     0
102
RTVSPropertyOp10
 70
     0
102
RTVSPropertyOp11
 70
     0
102
RTVSPropertyOp12
 70
     0
102
RTVSPropertyOp13
 70
     0
102
RTVSPropertyOp14
 70
     2
102
RTVSPropertyOp15
 70
     0
102
RTVSPropertyOp16
 70
     0
102
RTVSPropertyOp17
 70
     0
102
RTVSPropertyOp18
 70
     0
102
RTVSPropertyOp19
 70
     0
102
RTVSPropertyOp20
 70
     0
102
RTVSPropertyOp21
 70
     0
102
RTVSPropertyOp22
 70
     0
102
RTVSPropertyOp23
 70
     0
102
RTVSPropertyOp24
 70
     0
102
RTVSPropertyOp25
 70
     0
102
RTVSPropertyOp26
 70
     0
102
RTVSPropertyOp27
 70
     0
102
RTVSPropertyOp28
 70
     0
102
RTVSPropertyOp29
 70
     0
102
RTVSPropertyOp30
 70
     0
102
RTVSPropertyOp31
 70
     0
102
RTVSPropertyOp32
 70
     0
102
RTVSPropertyOp33
 70
     0
102
RTVSPropertyOp34
 70
     0
102
RTVSPropertyOp35
 70
     0
102
RTVSPropertyOp36
 70
     0
102
RTVSPropertyOp37
 70
     0
102
RTVSPropertyOp38
 70
     0
102
RTVSPropertyOp39
 70
     0
102
RTVSPropertyOp40
 70
     0
102
RTVSPropertyOp41
 70
     0
102
RTVSPropertyOp42
 70
     0
102
RTVSPropertyOp43
 70
     0
102
RTVSPropertyOp44
 70
     0
102
RTVSPropertyOp45
 70
     0
102
RTVSPropertyOp46
 70
     0
102
RTVSPropertyOp47
 70
     0
102
RTVSPropertyOp48
 70
     0
102
RTVSPropertyOp49
 70
     0
102
RTVSPropertyOp50
 70
     0
102
RTVSPropertyOp51
 70
     0
102
RTVSPropertyOp52
 70
     0
102
RTVSPropertyOp53
 70
     0
102
RTVSPropertyOp54
 70
     0
102
RTVSPropertyOp55
 70
     0
102
RTVSPropertyOp56
 70
     0
102
RTVSPropertyOp57
 70
     0
102
RTVSPost2010Prop28
280
     0
102
RTVSPost2010PropOp28
 70
     0
102
RTVSPost2010Prop29
280
     1
102
RTVSPost2010PropOp29
 70
     0
102
RTVSPost2010Prop30
280
     1
102
RTVSPost2010PropOp30
 70
     0
102
RTVSPost2010Prop31
280
     0
102
RTVSPost2010PropOp31
 70
     0
102
RTVSPost2010Prop32
280
     0
102
RTVSPost2010PropOp32
 70
     0
102
RTVSPost2010Prop33
280
     0
102
RTVSPost2010PropOp33
 70
     0
102
RTVSPost2010Prop34
280
     0
102
RTVSPost2010PropOp34
 70
     0
102
RTVSPost2010Prop35
280
     0
102
RTVSPost2010PropOp35
 70
     0
102
RTVSPost2010Prop36
280
     0
102
RTVSPost2010PropOp36
 70
     0
102
RTVSPost2010Prop37
 90
       50
102
RTVSPost2010PropOp37
 70
     0
102
RTVSPost2010Prop38
140
0.0
102
RTVSPost2010PropOp38
 70
     0
102
RTVSPost2010Prop39
140
1.0
102
RTVSPost2010PropOp39
 70
     0
102
RTVSPost2010Prop40
 90
        0
102
RTVSPost2010PropOp40
 70
     0
102
RTVSPost2010Prop41ColorIndex
 90
       18
102
RTVSPost2010Prop41ColorRGB
 90
        0
102
RTVSPost2010PropOp41
 70
     0
102
RTVSPost2010Prop42
 90
       50
102
RTVSPost2010PropOp42
 70
     0
102
RTVSPost2010Prop43
 90
        3
102
RTVSPost2010PropOp43
 70
     0
102
RTVSPost2010Prop44ColorIndex
 90
        5
102
RTVSPost2010Prop44ColorRGB
 90
      255
102
RTVSPost2010PropOp44
 70
     0
102
RTVSPost2010Prop45
280
     0
102
RTVSPost2010PropOp45
 70
     0
102
RTVSPost2010Prop46
 90
       50
102
RTVSPost2010PropOp46
 70
     0
102
RTVSPost2010Prop47
 90
       50
102
RTVSPost2010PropOp47
 70
     0
102
RTVSPost2010Prop48
 90
       50
102
RTVSPost2010PropOp48
 70
     0
102
RTVSPost2010Prop49
280
     0
102
RTVSPost2010PropOp49
 70
     0
102
RTVSPost2010Prop50
 90
       50
102
RTVSPost2010PropOp50
 70
     0
102
RTVSPost2010Prop51ColorIndex
 90
      256
102
RTVSPost2010Prop51ColorRGB
 90
-16777216
102
RTVSPost2010PropOp51
 70
     0
102
RTVSPost2010Prop52
140
1.0
102
RTVSPost2010PropOp52
 70
     0
102
RTVSPost2010Prop53
 90
        2
102
RTVSPost2010PropOp53
 70
     0
102
RTVSPost2010Prop54
  1
strokes_ogs.tif
102
RTVSPost2010PropOp54
 70
     0
102
RTVSPost2010Prop55
280
     0
102
RTVSPost2010PropOp55
 70
     0
102
RTVSPost2010Prop56
140
1.0
102
RTVSPost2010PropOp56
 70
     0
102
RTVSPost2010Prop57
140
1.0
102
RTVSPost2010PropOp57
 70
     0
  0
XRECORD
  5
3F6
102
{ACAD_REACTORS
330
3F5
102
}
330
3F5
100
AcDbXrecord
280
     1
102
RTVSPropertyOp0
 70
     1
102
RTVSPropertyOp1
 70
     1
102
RTVSPropertyOp2
 70
     1
102
RTVSPropertyOp3
 70
     1
102
RTVSPropertyOp4
 70
     1
102
RTVSPropertyOp5
 70
     1
102
RTVSPropertyOp6
 70
     1
102
RTVSPropertyOp7
 70
     1
102
RTVSPropertyOp8
 70
     1
102
RTVSPropertyOp9
 70
     1
102
RTVSPropertyOp10
 70
     1
102
RTVSPropertyOp11
 70
     1
102
RTVSPropertyOp12
 70
     1
102
RTVSPropertyOp13
 70
     1
102
RTVSPropertyOp14
 70
     1
102
RTVSPropertyOp15
 70
     1
102
RTVSPropertyOp16
 70
     1
102
RTVSPropertyOp17
 70
     1
102
RTVSPropertyOp18
 70
     1
102
RTVSPropertyOp19
 70
     1
102
RTVSPropertyOp20
 70
     1
102
RTVSPropertyOp21
 70
     1
102
RTVSPropertyOp22
 70
     1
102
RTVSPropertyOp23
 70
     1
102
RTVSPropertyOp24
 70
     1
102
RTVSPropertyOp25
 70
     1
102
RTVSPropertyOp26
 70
     1
102
RTVSPropertyOp27
 70
     1
102
RTVSPropertyOp28
 70
     1
102
RTVSPropertyOp29
 70
     1
102
RTVSPropertyOp30
 70
     1
102
RTVSPropertyOp31
 70
     1
102
RTVSPropertyOp32
 70
     1
102
RTVSPropertyOp33
 70
     1
102
RTVSPropertyOp34
 70
     1
102
RTVSPropertyOp35
 70
     1
102
RTVSPropertyOp36
 70
     1
102
RTVSPropertyOp37
 70
     1
102
RTVSPropertyOp38
 70
     1
102
RTVSPropertyOp39
 70
     1
102
RTVSPropertyOp40
 70
     1
102
RTVSPropertyOp41
 70
     1
102
RTVSPropertyOp42
 70
     1
102
RTVSPropertyOp43
 70
     1
102
RTVSPropertyOp44
 70
     1
102
RTVSPropertyOp45
 70
     1
102
RTVSPropertyOp46
 70
     1
102
RTVSPropertyOp47
 70
     1
102
RTVSPropertyOp48
 70
     1
102
RTVSPropertyOp49
 70
     1
102
RTVSPropertyOp50
 70
     1
102
RTVSPropertyOp51
 70
     0
102
RTVSPropertyOp52
 70
     0
102
RTVSPropertyOp53
 70
     1
102
RTVSPropertyOp54
 70
     1
102
RTVSPropertyOp55
 70
     1
102
RTVSPropertyOp56
 70
     1
102
RTVSPropertyOp57
 70
     1
102
RTVSPost2010Prop28
280
     0
102
RTVSPost2010PropOp28
 70
     1
102
RTVSPost2010Prop29
280
     1
102
RTVSPost2010PropOp29
 70
     1
102
RTVSPost2010Prop30
280
     1
102
RTVSPost2010PropOp30
 70
     1
102
RTVSPost2010Prop31
280
     0
102
RTVSPost2010PropOp31
 70
     1
102
RTVSPost2010Prop32
280
     0
102
RTVSPost2010PropOp32
 70
     1
102
RTVSPost2010Prop33
280
     0
102
RTVSPost2010PropOp33
 70
     1
102
RTVSPost2010Prop34
280
     0
102
RTVSPost2010PropOp34
 70
     1
102
RTVSPost2010Prop35
280
     0
102
RTVSPost2010PropOp35
 70
     1
102
RTVSPost2010Prop36
280
     0
102
RTVSPost2010PropOp36
 70
     1
102
RTVSPost2010Prop37
 90
       50
102
RTVSPost2010PropOp37
 70
     1
102
RTVSPost2010Prop38
140
0.0
102
RTVSPost2010PropOp38
 70
     1
102
RTVSPost2010Prop39
140
1.0
102
RTVSPost2010PropOp39
 70
     1
102
RTVSPost2010Prop40
 90
        0
102
RTVSPost2010PropOp40
 70
     1
102
RTVSPost2010Prop41ColorIndex
 90
       18
102
RTVSPost2010Prop41ColorRGB
 90
        0
102
RTVSPost2010PropOp41
 70
     1
102
RTVSPost2010Prop42
 90
       50
102
RTVSPost2010PropOp42
 70
     1
102
RTVSPost2010Prop43
 90
        3
102
RTVSPost2010PropOp43
 70
     1
102
RTVSPost2010Prop44ColorIndex
 90
        5
102
RTVSPost2010Prop44ColorRGB
 90
      255
102
RTVSPost2010PropOp44
 70
     1
102
RTVSPost2010Prop45
280
     0
102
RTVSPost2010PropOp45
 70
     1
102
RTVSPost2010Prop46
 90
       50
102
RTVSPost2010PropOp46
 70
     1
102
RTVSPost2010Prop47
 90
       50
102
RTVSPost2010PropOp47
 70
     1
102
RTVSPost2010Prop48
 90
       50
102
RTVSPost2010PropOp48
 70
     1
102
RTVSPost2010Prop49
280
     0
102
RTVSPost2010PropOp49
 70
     1
102
RTVSPost2010Prop50
 90
       50
102
RTVSPost2010PropOp50
 70
     1
102
RTVSPost2010Prop51ColorIndex
 90
      256
102
RTVSPost2010Prop51ColorRGB
 90
-16777216
102
RTVSPost2010PropOp51
 70
     0
102
RTVSPost2010Prop52
140
1.0
102
RTVSPost2010PropOp52
 70
     0
102
RTVSPost2010Prop53
 90
        2
102
RTVSPost2010PropOp53
 70
     1
102
RTVSPost2010Prop54
  1
strokes_ogs.tif
102
RTVSPost2010PropOp54
 70
     1
102
RTVSPost2010Prop55
280
     0
102
RTVSPost2010PropOp55
 70
     1
102
RTVSPost2010Prop56
140
1.0
102
RTVSPost2010PropOp56
 70
     1
102
RTVSPost2010Prop57
140
1.0
102
RTVSPost2010PropOp57
 70
     1
  0
XRECORD
  5
3DA
102
{ACAD_REACTORS
330
3D9
102
}
330
3D9
100
AcDbXrecord
280
     1
102
RTVSPropertyOp0
 70
     1
102
RTVSPropertyOp1
 70
     1
102
RTVSPropertyOp2
 70
     1
102
RTVSPropertyOp3
 70
     1
102
RTVSPropertyOp4
 70
     1
102
RTVSPropertyOp5
 70
     1
102
RTVSPropertyOp6
 70
     1
102
RTVSPropertyOp7
 70
     1
102
RTVSPropertyOp8
 70
     1
102
RTVSPropertyOp9
 70
     1
102
RTVSPropertyOp10
 70
     1
102
RTVSPropertyOp11
 70
     1
102
RTVSPropertyOp12
 70
     1
102
RTVSPropertyOp13
 70
     1
102
RTVSPropertyOp14
 70
     1
102
RTVSPropertyOp15
 70
     1
102
RTVSPropertyOp16
 70
     1
102
RTVSPropertyOp17
 70
     1
102
RTVSPropertyOp18
 70
     1
102
RTVSPropertyOp19
 70
     1
102
RTVSPropertyOp20
 70
     1
102
RTVSPropertyOp21
 70
     1
102
RTVSPropertyOp22
 70
     1
102
RTVSPropertyOp23
 70
     1
102
RTVSPropertyOp24
 70
     1
102
RTVSPropertyOp25
 70
     1
102
RTVSPropertyOp26
 70
     1
102
RTVSPropertyOp27
 70
     1
102
RTVSPropertyOp28
 70
     1
102
RTVSPropertyOp29
 70
     1
102
RTVSPropertyOp30
 70
     1
102
RTVSPropertyOp31
 70
     1
102
RTVSPropertyOp32
 70
     1
102
RTVSPropertyOp33
 70
     1
102
RTVSPropertyOp34
 70
     1
102
RTVSPropertyOp35
 70
     1
102
RTVSPropertyOp36
 70
     1
102
RTVSPropertyOp37
 70
     1
102
RTVSPropertyOp38
 70
     1
102
RTVSPropertyOp39
 70
     1
102
RTVSPropertyOp40
 70
     1
102
RTVSPropertyOp41
 70
     1
102
RTVSPropertyOp42
 70
     1
102
RTVSPropertyOp43
 70
     1
102
RTVSPropertyOp44
 70
     1
102
RTVSPropertyOp45
 70
     1
102
RTVSPropertyOp46
 70
     1
102
RTVSPropertyOp47
 70
     1
102
RTVSPropertyOp48
 70
     1
102
RTVSPropertyOp49
 70
     1
102
RTVSPropertyOp50
 70
     1
102
RTVSPropertyOp51
 70
     0
102
RTVSPropertyOp52
 70
     0
102
RTVSPropertyOp53
 70
     1
102
RTVSPropertyOp54
 70
     1
102
RTVSPropertyOp55
 70
     1
102
RTVSPropertyOp56
 70
     1
102
RTVSPropertyOp57
 70
     1
102
RTVSPost2010Prop28
280
     0
102
RTVSPost2010PropOp28
 70
     1
102
RTVSPost2010Prop29
280
     1
102
RTVSPost2010PropOp29
 70
     1
102
RTVSPost2010Prop30
280
     1
102
RTVSPost2010PropOp30
 70
     1
102
RTVSPost2010Prop31
280
     0
102
RTVSPost2010PropOp31
 70
     1
102
RTVSPost2010Prop32
280
     0
102
RTVSPost2010PropOp32
 70
     1
102
RTVSPost2010Prop33
280
     0
102
RTVSPost2010PropOp33
 70
     1
102
RTVSPost2010Prop34
280
     0
102
RTVSPost2010PropOp34
 70
     1
102
RTVSPost2010Prop35
280
     0
102
RTVSPost2010PropOp35
 70
     1
102
RTVSPost2010Prop36
280
     0
102
RTVSPost2010PropOp36
 70
     1
102
RTVSPost2010Prop37
 90
       50
102
RTVSPost2010PropOp37
 70
     1
102
RTVSPost2010Prop38
140
0.0
102
RTVSPost2010PropOp38
 70
     1
102
RTVSPost2010Prop39
140
1.0
102
RTVSPost2010PropOp39
 70
     1
102
RTVSPost2010Prop40
 90
        0
102
RTVSPost2010PropOp40
 70
     1
102
RTVSPost2010Prop41ColorIndex
 90
       18
102
RTVSPost2010Prop41ColorRGB
 90
        0
102
RTVSPost2010PropOp41
 70
     1
102
RTVSPost2010Prop42
 90
       50
102
RTVSPost2010PropOp42
 70
     1
102
RTVSPost2010Prop43
 90
        3
102
RTVSPost2010PropOp43
 70
     1
102
RTVSPost2010Prop44ColorIndex
 90
        5
102
RTVSPost2010Prop44ColorRGB
 90
      255
102
RTVSPost2010PropOp44
 70
     1
102
RTVSPost2010Prop45
280
     0
102
RTVSPost2010PropOp45
 70
     1
102
RTVSPost2010Prop46
 90
       50
102
RTVSPost2010PropOp46
 70
     1
102
RTVSPost2010Prop47
 90
       50
102
RTVSPost2010PropOp47
 70
     1
102
RTVSPost2010Prop48
 90
       50
102
RTVSPost2010PropOp48
 70
     1
102
RTVSPost2010Prop49
280
     0
102
RTVSPost2010PropOp49
 70
     1
102
RTVSPost2010Prop50
 90
       50
102
RTVSPost2010PropOp50
 70
     1
102
RTVSPost2010Prop51ColorIndex
 90
      256
102
RTVSPost2010Prop51ColorRGB
 90
-16777216
102
RTVSPost2010PropOp51
 70
     0
102
RTVSPost2010Prop52
140
1.0
102
RTVSPost2010PropOp52
 70
     0
102
RTVSPost2010Prop53
 90
        2
102
RTVSPost2010PropOp53
 70
     1
102
RTVSPost2010Prop54
  1
strokes_ogs.tif
102
RTVSPost2010PropOp54
 70
     1
102
RTVSPost2010Prop55
280
     0
102
RTVSPost2010PropOp55
 70
     1
102
RTVSPost2010Prop56
140
1.0
102
RTVSPost2010PropOp56
 70
     1
102
RTVSPost2010Prop57
140
1.0
102
RTVSPost2010PropOp57
 70
     1
  0
XRECORD
  5
3DC
102
{ACAD_REACTORS
330
3DB
102
}
330
3DB
100
AcDbXrecord
280
     1
102
RTVSPropertyOp0
 70
     1
102
RTVSPropertyOp1
 70
     1
102
RTVSPropertyOp2
 70
     1
102
RTVSPropertyOp3
 70
     1
102
RTVSPropertyOp4
 70
     1
102
RTVSPropertyOp5
 70
     1
102
RTVSPropertyOp6
 70
     1
102
RTVSPropertyOp7
 70
     1
102
RTVSPropertyOp8
 70
     1
102
RTVSPropertyOp9
 70
     1
102
RTVSPropertyOp10
 70
     1
102
RTVSPropertyOp11
 70
     1
102
RTVSPropertyOp12
 70
     1
102
RTVSPropertyOp13
 70
     1
102
RTVSPropertyOp14
 70
     1
102
RTVSPropertyOp15
 70
     1
102
RTVSPropertyOp16
 70
     1
102
RTVSPropertyOp17
 70
     1
102
RTVSPropertyOp18
 70
     1
102
RTVSPropertyOp19
 70
     1
102
RTVSPropertyOp20
 70
     1
102
RTVSPropertyOp21
 70
     1
102
RTVSPropertyOp22
 70
     1
102
RTVSPropertyOp23
 70
     1
102
RTVSPropertyOp24
 70
     1
102
RTVSPropertyOp25
 70
     1
102
RTVSPropertyOp26
 70
     1
102
RTVSPropertyOp27
 70
     1
102
RTVSPropertyOp28
 70
     1
102
RTVSPropertyOp29
 70
     1
102
RTVSPropertyOp30
 70
     1
102
RTVSPropertyOp31
 70
     1
102
RTVSPropertyOp32
 70
     1
102
RTVSPropertyOp33
 70
     1
102
RTVSPropertyOp34
 70
     1
102
RTVSPropertyOp35
 70
     1
102
RTVSPropertyOp36
 70
     1
102
RTVSPropertyOp37
 70
     1
102
RTVSPropertyOp38
 70
     1
102
RTVSPropertyOp39
 70
     1
102
RTVSPropertyOp40
 70
     1
102
RTVSPropertyOp41
 70
     1
102
RTVSPropertyOp42
 70
     1
102
RTVSPropertyOp43
 70
     1
102
RTVSPropertyOp44
 70
     1
102
RTVSPropertyOp45
 70
     1
102
RTVSPropertyOp46
 70
     1
102
RTVSPropertyOp47
 70
     1
102
RTVSPropertyOp48
 70
     1
102
RTVSPropertyOp49
 70
     1
102
RTVSPropertyOp50
 70
     1
102
RTVSPropertyOp51
 70
     0
102
RTVSPropertyOp52
 70
     0
102
RTVSPropertyOp53
 70
     1
102
RTVSPropertyOp54
 70
     1
102
RTVSPropertyOp55
 70
     1
102
RTVSPropertyOp56
 70
     1
102
RTVSPropertyOp57
 70
     1
102
RTVSPost2010Prop28
280
     0
102
RTVSPost2010PropOp28
 70
     1
102
RTVSPost2010Prop29
280
     1
102
RTVSPost2010PropOp29
 70
     1
102
RTVSPost2010Prop30
280
     1
102
RTVSPost2010PropOp30
 70
     1
102
RTVSPost2010Prop31
280
     0
102
RTVSPost2010PropOp31
 70
     1
102
RTVSPost2010Prop32
280
     0
102
RTVSPost2010PropOp32
 70
     1
102
RTVSPost2010Prop33
280
     0
102
RTVSPost2010PropOp33
 70
     1
102
RTVSPost2010Prop34
280
     0
102
RTVSPost2010PropOp34
 70
     1
102
RTVSPost2010Prop35
280
     0
102
RTVSPost2010PropOp35
 70
     1
102
RTVSPost2010Prop36
280
     0
102
RTVSPost2010PropOp36
 70
     1
102
RTVSPost2010Prop37
 90
       50
102
RTVSPost2010PropOp37
 70
     1
102
RTVSPost2010Prop38
140
0.0
102
RTVSPost2010PropOp38
 70
     1
102
RTVSPost2010Prop39
140
1.0
102
RTVSPost2010PropOp39
 70
     1
102
RTVSPost2010Prop40
 90
        0
102
RTVSPost2010PropOp40
 70
     1
102
RTVSPost2010Prop41ColorIndex
 90
       18
102
RTVSPost2010Prop41ColorRGB
 90
        0
102
RTVSPost2010PropOp41
 70
     1
102
RTVSPost2010Prop42
 90
       50
102
RTVSPost2010PropOp42
 70
     1
102
RTVSPost2010Prop43
 90
        3
102
RTVSPost2010PropOp43
 70
     1
102
RTVSPost2010Prop44ColorIndex
 90
        5
102
RTVSPost2010Prop44ColorRGB
 90
      255
102
RTVSPost2010PropOp44
 70
     1
102
RTVSPost2010Prop45
280
     0
102
RTVSPost2010PropOp45
 70
     1
102
RTVSPost2010Prop46
 90
       50
102
RTVSPost2010PropOp46
 70
     1
102
RTVSPost2010Prop47
 90
       50
102
RTVSPost2010PropOp47
 70
     1
102
RTVSPost2010Prop48
 90
       50
102
RTVSPost2010PropOp48
 70
     1
102
RTVSPost2010Prop49
280
     0
102
RTVSPost2010PropOp49
 70
     1
102
RTVSPost2010Prop50
 90
       50
102
RTVSPost2010PropOp50
 70
     1
102
RTVSPost2010Prop51ColorIndex
 90
      256
102
RTVSPost2010Prop51ColorRGB
 90
-16777216
102
RTVSPost2010PropOp51
 70
     0
102
RTVSPost2010Prop52
140
1.0
102
RTVSPost2010PropOp52
 70
     0
102
RTVSPost2010Prop53
 90
        2
102
RTVSPost2010PropOp53
 70
     1
102
RTVSPost2010Prop54
  1
strokes_ogs.tif
102
RTVSPost2010PropOp54
 70
     1
102
RTVSPost2010Prop55
280
     0
102
RTVSPost2010PropOp55
 70
     1
102
RTVSPost2010Prop56
140
1.0
102
RTVSPost2010PropOp56
 70
     1
102
RTVSPost2010Prop57
140
1.0
102
RTVSPost2010PropOp57
 70
     1
  0
XRECORD
  5
3DE
102
{ACAD_REACTORS
330
3DD
102
}
330
3DD
100
AcDbXrecord
280
     1
102
RTVSPropertyOp0
 70
     1
102
RTVSPropertyOp1
 70
     1
102
RTVSPropertyOp2
 70
     1
102
RTVSPropertyOp3
 70
     1
102
RTVSPropertyOp4
 70
     1
102
RTVSPropertyOp5
 70
     1
102
RTVSPropertyOp6
 70
     1
102
RTVSPropertyOp7
 70
     1
102
RTVSPropertyOp8
 70
     1
102
RTVSPropertyOp9
 70
     1
102
RTVSPropertyOp10
 70
     1
102
RTVSPropertyOp11
 70
     1
102
RTVSPropertyOp12
 70
     1
102
RTVSPropertyOp13
 70
     1
102
RTVSPropertyOp14
 70
     1
102
RTVSPropertyOp15
 70
     1
102
RTVSPropertyOp16
 70
     1
102
RTVSPropertyOp17
 70
     1
102
RTVSPropertyOp18
 70
     1
102
RTVSPropertyOp19
 70
     1
102
RTVSPropertyOp20
 70
     1
102
RTVSPropertyOp21
 70
     1
102
RTVSPropertyOp22
 70
     1
102
RTVSPropertyOp23
 70
     1
102
RTVSPropertyOp24
 70
     1
102
RTVSPropertyOp25
 70
     1
102
RTVSPropertyOp26
 70
     1
102
RTVSPropertyOp27
 70
     1
102
RTVSPropertyOp28
 70
     1
102
RTVSPropertyOp29
 70
     1
102
RTVSPropertyOp30
 70
     1
102
RTVSPropertyOp31
 70
     1
102
RTVSPropertyOp32
 70
     1
102
RTVSPropertyOp33
 70
     1
102
RTVSPropertyOp34
 70
     1
102
RTVSPropertyOp35
 70
     1
102
RTVSPropertyOp36
 70
     1
102
RTVSPropertyOp37
 70
     1
102
RTVSPropertyOp38
 70
     1
102
RTVSPropertyOp39
 70
     1
102
RTVSPropertyOp40
 70
     1
102
RTVSPropertyOp41
 70
     1
102
RTVSPropertyOp42
 70
     1
102
RTVSPropertyOp43
 70
     1
102
RTVSPropertyOp44
 70
     1
102
RTVSPropertyOp45
 70
     1
102
RTVSPropertyOp46
 70
     1
102
RTVSPropertyOp47
 70
     1
102
RTVSPropertyOp48
 70
     1
102
RTVSPropertyOp49
 70
     1
102
RTVSPropertyOp50
 70
     1
102
RTVSPropertyOp51
 70
     0
102
RTVSPropertyOp52
 70
     0
102
RTVSPropertyOp53
 70
     1
102
RTVSPropertyOp54
 70
     1
102
RTVSPropertyOp55
 70
     1
102
RTVSPropertyOp56
 70
     1
102
RTVSPropertyOp57
 70
     1
102
RTVSPost2010Prop28
280
     0
102
RTVSPost2010PropOp28
 70
     1
102
RTVSPost2010Prop29
280
     1
102
RTVSPost2010PropOp29
 70
     1
102
RTVSPost2010Prop30
280
     1
102
RTVSPost2010PropOp30
 70
     1
102
RTVSPost2010Prop31
280
     0
102
RTVSPost2010PropOp31
 70
     1
102
RTVSPost2010Prop32
280
     0
102
RTVSPost2010PropOp32
 70
     1
102
RTVSPost2010Prop33
280
     0
102
RTVSPost2010PropOp33
 70
     1
102
RTVSPost2010Prop34
280
     0
102
RTVSPost2010PropOp34
 70
     1
102
RTVSPost2010Prop35
280
     0
102
RTVSPost2010PropOp35
 70
     1
102
RTVSPost2010Prop36
280
     0
102
RTVSPost2010PropOp36
 70
     1
102
RTVSPost2010Prop37
 90
       50
102
RTVSPost2010PropOp37
 70
     1
102
RTVSPost2010Prop38
140
0.0
102
RTVSPost2010PropOp38
 70
     1
102
RTVSPost2010Prop39
140
1.0
102
RTVSPost2010PropOp39
 70
     1
102
RTVSPost2010Prop40
 90
        0
102
RTVSPost2010PropOp40
 70
     1
102
RTVSPost2010Prop41ColorIndex
 90
       18
102
RTVSPost2010Prop41ColorRGB
 90
        0
102
RTVSPost2010PropOp41
 70
     1
102
RTVSPost2010Prop42
 90
       50
102
RTVSPost2010PropOp42
 70
     1
102
RTVSPost2010Prop43
 90
        3
102
RTVSPost2010PropOp43
 70
     1
102
RTVSPost2010Prop44ColorIndex
 90
        5
102
RTVSPost2010Prop44ColorRGB
 90
      255
102
RTVSPost2010PropOp44
 70
     1
102
RTVSPost2010Prop45
280
     0
102
RTVSPost2010PropOp45
 70
     1
102
RTVSPost2010Prop46
 90
       50
102
RTVSPost2010PropOp46
 70
     1
102
RTVSPost2010Prop47
 90
       50
102
RTVSPost2010PropOp47
 70
     1
102
RTVSPost2010Prop48
 90
       50
102
RTVSPost2010PropOp48
 70
     1
102
RTVSPost2010Prop49
280
     0
102
RTVSPost2010PropOp49
 70
     1
102
RTVSPost2010Prop50
 90
       50
102
RTVSPost2010PropOp50
 70
     1
102
RTVSPost2010Prop51ColorIndex
 90
      256
102
RTVSPost2010Prop51ColorRGB
 90
-16777216
102
RTVSPost2010PropOp51
 70
     0
102
RTVSPost2010Prop52
140
1.0
102
RTVSPost2010PropOp52
 70
     0
102
RTVSPost2010Prop53
 90
        2
102
RTVSPost2010PropOp53
 70
     1
102
RTVSPost2010Prop54
  1
strokes_ogs.tif
102
RTVSPost2010PropOp54
 70
     1
102
RTVSPost2010Prop55
280
     0
102
RTVSPost2010PropOp55
 70
     1
102
RTVSPost2010Prop56
140
1.0
102
RTVSPost2010PropOp56
 70
     1
102
RTVSPost2010Prop57
140
1.0
102
RTVSPost2010PropOp57
 70
     1
  0
XRECORD
  5
3E0
102
{ACAD_REACTORS
330
3DF
102
}
330
3DF
100
AcDbXrecord
280
     1
102
RTVSPropertyOp0
 70
     1
102
RTVSPropertyOp1
 70
     1
102
RTVSPropertyOp2
 70
     1
102
RTVSPropertyOp3
 70
     1
102
RTVSPropertyOp4
 70
     1
102
RTVSPropertyOp5
 70
     1
102
RTVSPropertyOp6
 70
     1
102
RTVSPropertyOp7
 70
     1
102
RTVSPropertyOp8
 70
     1
102
RTVSPropertyOp9
 70
     1
102
RTVSPropertyOp10
 70
     1
102
RTVSPropertyOp11
 70
     1
102
RTVSPropertyOp12
 70
     1
102
RTVSPropertyOp13
 70
     1
102
RTVSPropertyOp14
 70
     1
102
RTVSPropertyOp15
 70
     1
102
RTVSPropertyOp16
 70
     1
102
RTVSPropertyOp17
 70
     1
102
RTVSPropertyOp18
 70
     1
102
RTVSPropertyOp19
 70
     1
102
RTVSPropertyOp20
 70
     1
102
RTVSPropertyOp21
 70
     1
102
RTVSPropertyOp22
 70
     1
102
RTVSPropertyOp23
 70
     1
102
RTVSPropertyOp24
 70
     1
102
RTVSPropertyOp25
 70
     1
102
RTVSPropertyOp26
 70
     1
102
RTVSPropertyOp27
 70
     1
102
RTVSPropertyOp28
 70
     1
102
RTVSPropertyOp29
 70
     1
102
RTVSPropertyOp30
 70
     1
102
RTVSPropertyOp31
 70
     1
102
RTVSPropertyOp32
 70
     1
102
RTVSPropertyOp33
 70
     1
102
RTVSPropertyOp34
 70
     1
102
RTVSPropertyOp35
 70
     1
102
RTVSPropertyOp36
 70
     1
102
RTVSPropertyOp37
 70
     1
102
RTVSPropertyOp38
 70
     1
102
RTVSPropertyOp39
 70
     1
102
RTVSPropertyOp40
 70
     1
102
RTVSPropertyOp41
 70
     1
102
RTVSPropertyOp42
 70
     1
102
RTVSPropertyOp43
 70
     1
102
RTVSPropertyOp44
 70
     1
102
RTVSPropertyOp45
 70
     1
102
RTVSPropertyOp46
 70
     1
102
RTVSPropertyOp47
 70
     1
102
RTVSPropertyOp48
 70
     1
102
RTVSPropertyOp49
 70
     1
102
RTVSPropertyOp50
 70
     1
102
RTVSPropertyOp51
 70
     0
102
RTVSPropertyOp52
 70
     0
102
RTVSPropertyOp53
 70
     1
102
RTVSPropertyOp54
 70
     1
102
RTVSPropertyOp55
 70
     1
102
RTVSPropertyOp56
 70
     1
102
RTVSPropertyOp57
 70
     1
102
RTVSPost2010Prop28
280
     0
102
RTVSPost2010PropOp28
 70
     1
102
RTVSPost2010Prop29
280
     1
102
RTVSPost2010PropOp29
 70
     1
102
RTVSPost2010Prop30
280
     1
102
RTVSPost2010PropOp30
 70
     1
102
RTVSPost2010Prop31
280
     0
102
RTVSPost2010PropOp31
 70
     1
102
RTVSPost2010Prop32
280
     0
102
RTVSPost2010PropOp32
 70
     1
102
RTVSPost2010Prop33
280
     0
102
RTVSPost2010PropOp33
 70
     1
102
RTVSPost2010Prop34
280
     0
102
RTVSPost2010PropOp34
 70
     1
102
RTVSPost2010Prop35
280
     0
102
RTVSPost2010PropOp35
 70
     1
102
RTVSPost2010Prop36
280
     0
102
RTVSPost2010PropOp36
 70
     1
102
RTVSPost2010Prop37
 90
       50
102
RTVSPost2010PropOp37
 70
     1
102
RTVSPost2010Prop38
140
0.0
102
RTVSPost2010PropOp38
 70
     1
102
RTVSPost2010Prop39
140
1.0
102
RTVSPost2010PropOp39
 70
     1
102
RTVSPost2010Prop40
 90
        0
102
RTVSPost2010PropOp40
 70
     1
102
RTVSPost2010Prop41ColorIndex
 90
       18
102
RTVSPost2010Prop41ColorRGB
 90
        0
102
RTVSPost2010PropOp41
 70
     1
102
RTVSPost2010Prop42
 90
       50
102
RTVSPost2010PropOp42
 70
     1
102
RTVSPost2010Prop43
 90
        3
102
RTVSPost2010PropOp43
 70
     1
102
RTVSPost2010Prop44ColorIndex
 90
        5
102
RTVSPost2010Prop44ColorRGB
 90
      255
102
RTVSPost2010PropOp44
 70
     1
102
RTVSPost2010Prop45
280
     0
102
RTVSPost2010PropOp45
 70
     1
102
RTVSPost2010Prop46
 90
       50
102
RTVSPost2010PropOp46
 70
     1
102
RTVSPost2010Prop47
 90
       50
102
RTVSPost2010PropOp47
 70
     1
102
RTVSPost2010Prop48
 90
       50
102
RTVSPost2010PropOp48
 70
     1
102
RTVSPost2010Prop49
280
     0
102
RTVSPost2010PropOp49
 70
     1
102
RTVSPost2010Prop50
 90
       50
102
RTVSPost2010PropOp50
 70
     1
102
RTVSPost2010Prop51ColorIndex
 90
      256
102
RTVSPost2010Prop51ColorRGB
 90
-16777216
102
RTVSPost2010PropOp51
 70
     0
102
RTVSPost2010Prop52
140
1.0
102
RTVSPost2010PropOp52
 70
     0
102
RTVSPost2010Prop53
 90
        2
102
RTVSPost2010PropOp53
 70
     1
102
RTVSPost2010Prop54
  1
strokes_ogs.tif
102
RTVSPost2010PropOp54
 70
     1
102
RTVSPost2010Prop55
280
     0
102
RTVSPost2010PropOp55
 70
     1
102
RTVSPost2010Prop56
140
1.0
102
RTVSPost2010PropOp56
 70
     1
102
RTVSPost2010Prop57
140
1.0
102
RTVSPost2010PropOp57
 70
     1
  0
XRECORD
  5
3E6
102
{ACAD_REACTORS
330
3E5
102
}
330
3E5
100
AcDbXrecord
280
     1
102
RTVSPropertyOp0
 70
     1
102
RTVSPropertyOp1
 70
     1
102
RTVSPropertyOp2
 70
     1
102
RTVSPropertyOp3
 70
     1
102
RTVSPropertyOp4
 70
     1
102
RTVSPropertyOp5
 70
     1
102
RTVSPropertyOp6
 70
     1
102
RTVSPropertyOp7
 70
     1
102
RTVSPropertyOp8
 70
     1
102
RTVSPropertyOp9
 70
     1
102
RTVSPropertyOp10
 70
     1
102
RTVSPropertyOp11
 70
     1
102
RTVSPropertyOp12
 70
     1
102
RTVSPropertyOp13
 70
     1
102
RTVSPropertyOp14
 70
     1
102
RTVSPropertyOp15
 70
     1
102
RTVSPropertyOp16
 70
     1
102
RTVSPropertyOp17
 70
     1
102
RTVSPropertyOp18
 70
     1
102
RTVSPropertyOp19
 70
     1
102
RTVSPropertyOp20
 70
     1
102
RTVSPropertyOp21
 70
     1
102
RTVSPropertyOp22
 70
     1
102
RTVSPropertyOp23
 70
     1
102
RTVSPropertyOp24
 70
     1
102
RTVSPropertyOp25
 70
     1
102
RTVSPropertyOp26
 70
     1
102
RTVSPropertyOp27
 70
     1
102
RTVSPropertyOp28
 70
     1
102
RTVSPropertyOp29
 70
     1
102
RTVSPropertyOp30
 70
     1
102
RTVSPropertyOp31
 70
     1
102
RTVSPropertyOp32
 70
     1
102
RTVSPropertyOp33
 70
     1
102
RTVSPropertyOp34
 70
     1
102
RTVSPropertyOp35
 70
     1
102
RTVSPropertyOp36
 70
     1
102
RTVSPropertyOp37
 70
     1
102
RTVSPropertyOp38
 70
     1
102
RTVSPropertyOp39
 70
     1
102
RTVSPropertyOp40
 70
     1
102
RTVSPropertyOp41
 70
     1
102
RTVSPropertyOp42
 70
     1
102
RTVSPropertyOp43
 70
     1
102
RTVSPropertyOp44
 70
     1
102
RTVSPropertyOp45
 70
     1
102
RTVSPropertyOp46
 70
     1
102
RTVSPropertyOp47
 70
     1
102
RTVSPropertyOp48
 70
     1
102
RTVSPropertyOp49
 70
     1
102
RTVSPropertyOp50
 70
     1
102
RTVSPropertyOp51
 70
     0
102
RTVSPropertyOp52
 70
     0
102
RTVSPropertyOp53
 70
     1
102
RTVSPropertyOp54
 70
     1
102
RTVSPropertyOp55
 70
     1
102
RTVSPropertyOp56
 70
     1
102
RTVSPropertyOp57
 70
     1
102
RTVSPost2010Prop28
280
     0
102
RTVSPost2010PropOp28
 70
     1
102
RTVSPost2010Prop29
280
     1
102
RTVSPost2010PropOp29
 70
     1
102
RTVSPost2010Prop30
280
     1
102
RTVSPost2010PropOp30
 70
     1
102
RTVSPost2010Prop31
280
     0
102
RTVSPost2010PropOp31
 70
     1
102
RTVSPost2010Prop32
280
     0
102
RTVSPost2010PropOp32
 70
     1
102
RTVSPost2010Prop33
280
     0
102
RTVSPost2010PropOp33
 70
     1
102
RTVSPost2010Prop34
280
     0
102
RTVSPost2010PropOp34
 70
     1
102
RTVSPost2010Prop35
280
     0
102
RTVSPost2010PropOp35
 70
     1
102
RTVSPost2010Prop36
280
     0
102
RTVSPost2010PropOp36
 70
     1
102
RTVSPost2010Prop37
 90
       50
102
RTVSPost2010PropOp37
 70
     1
102
RTVSPost2010Prop38
140
0.0
102
RTVSPost2010PropOp38
 70
     1
102
RTVSPost2010Prop39
140
1.0
102
RTVSPost2010PropOp39
 70
     1
102
RTVSPost2010Prop40
 90
        0
102
RTVSPost2010PropOp40
 70
     1
102
RTVSPost2010Prop41ColorIndex
 90
       18
102
RTVSPost2010Prop41ColorRGB
 90
        0
102
RTVSPost2010PropOp41
 70
     1
102
RTVSPost2010Prop42
 90
       50
102
RTVSPost2010PropOp42
 70
     1
102
RTVSPost2010Prop43
 90
        3
102
RTVSPost2010PropOp43
 70
     1
102
RTVSPost2010Prop44ColorIndex
 90
        5
102
RTVSPost2010Prop44ColorRGB
 90
      255
102
RTVSPost2010PropOp44
 70
     1
102
RTVSPost2010Prop45
280
     0
102
RTVSPost2010PropOp45
 70
     1
102
RTVSPost2010Prop46
 90
       50
102
RTVSPost2010PropOp46
 70
     1
102
RTVSPost2010Prop47
 90
       50
102
RTVSPost2010PropOp47
 70
     1
102
RTVSPost2010Prop48
 90
       50
102
RTVSPost2010PropOp48
 70
     1
102
RTVSPost2010Prop49
280
     0
102
RTVSPost2010PropOp49
 70
     1
102
RTVSPost2010Prop50
 90
       50
102
RTVSPost2010PropOp50
 70
     1
102
RTVSPost2010Prop51ColorIndex
 90
      256
102
RTVSPost2010Prop51ColorRGB
 90
-16777216
102
RTVSPost2010PropOp51
 70
     0
102
RTVSPost2010Prop52
140
1.0
102
RTVSPost2010PropOp52
 70
     0
102
RTVSPost2010Prop53
 90
        2
102
RTVSPost2010PropOp53
 70
     1
102
RTVSPost2010Prop54
  1
strokes_ogs.tif
102
RTVSPost2010PropOp54
 70
     1
102
RTVSPost2010Prop55
280
     0
102
RTVSPost2010PropOp55
 70
     1
102
RTVSPost2010Prop56
140
1.0
102
RTVSPost2010PropOp56
 70
     1
102
RTVSPost2010Prop57
140
1.0
102
RTVSPost2010PropOp57
 70
     1
  0
XRECORD
  5
3FA
102
{ACAD_REACTORS
330
3F9
102
}
330
3F9
100
AcDbXrecord
280
     1
102
RTVSPropertyOp0
 70
     0
102
RTVSPropertyOp1
 70
     0
102
RTVSPropertyOp2
 70
     0
102
RTVSPropertyOp3
 70
     0
102
RTVSPropertyOp4
 70
     0
102
RTVSPropertyOp5
 70
     0
102
RTVSPropertyOp6
 70
     0
102
RTVSPropertyOp7
 70
     0
102
RTVSPropertyOp8
 70
     0
102
RTVSPropertyOp9
 70
     0
102
RTVSPropertyOp10
 70
     0
102
RTVSPropertyOp11
 70
     0
102
RTVSPropertyOp12
 70
     0
102
RTVSPropertyOp13
 70
     0
102
RTVSPropertyOp14
 70
     2
102
RTVSPropertyOp15
 70
     0
102
RTVSPropertyOp16
 70
     0
102
RTVSPropertyOp17
 70
     0
102
RTVSPropertyOp18
 70
     0
102
RTVSPropertyOp19
 70
     0
102
RTVSPropertyOp20
 70
     0
102
RTVSPropertyOp21
 70
     0
102
RTVSPropertyOp22
 70
     0
102
RTVSPropertyOp23
 70
     0
102
RTVSPropertyOp24
 70
     0
102
RTVSPropertyOp25
 70
     0
102
RTVSPropertyOp26
 70
     0
102
RTVSPropertyOp27
 70
     0
102
RTVSPropertyOp28
 70
     0
102
RTVSPropertyOp29
 70
     0
102
RTVSPropertyOp30
 70
     0
102
RTVSPropertyOp31
 70
     0
102
RTVSPropertyOp32
 70
     0
102
RTVSPropertyOp33
 70
     0
102
RTVSPropertyOp34
 70
     0
102
RTVSPropertyOp35
 70
     0
102
RTVSPropertyOp36
 70
     0
102
RTVSPropertyOp37
 70
     0
102
RTVSPropertyOp38
 70
     0
102
RTVSPropertyOp39
 70
     0
102
RTVSPropertyOp40
 70
     0
102
RTVSPropertyOp41
 70
     0
102
RTVSPropertyOp42
 70
     0
102
RTVSPropertyOp43
 70
     0
102
RTVSPropertyOp44
 70
     0
102
RTVSPropertyOp45
 70
     0
102
RTVSPropertyOp46
 70
     0
102
RTVSPropertyOp47
 70
     0
102
RTVSPropertyOp48
 70
     0
102
RTVSPropertyOp49
 70
     0
102
RTVSPropertyOp50
 70
     0
102
RTVSPropertyOp51
 70
     0
102
RTVSPropertyOp52
 70
     0
102
RTVSPropertyOp53
 70
     0
102
RTVSPropertyOp54
 70
     0
102
RTVSPropertyOp55
 70
     0
102
RTVSPropertyOp56
 70
     0
102
RTVSPropertyOp57
 70
     0
102
RTVSPost2010Prop28
280
     0
102
RTVSPost2010PropOp28
 70
     0
102
RTVSPost2010Prop29
280
     1
102
RTVSPost2010PropOp29
 70
     0
102
RTVSPost2010Prop30
280
     1
102
RTVSPost2010PropOp30
 70
     0
102
RTVSPost2010Prop31
280
     0
102
RTVSPost2010PropOp31
 70
     0
102
RTVSPost2010Prop32
280
     0
102
RTVSPost2010PropOp32
 70
     0
102
RTVSPost2010Prop33
280
     0
102
RTVSPost2010PropOp33
 70
     0
102
RTVSPost2010Prop34
280
     0
102
RTVSPost2010PropOp34
 70
     0
102
RTVSPost2010Prop35
280
     0
102
RTVSPost2010PropOp35
 70
     0
102
RTVSPost2010Prop36
280
     0
102
RTVSPost2010PropOp36
 70
     0
102
RTVSPost2010Prop37
 90
       50
102
RTVSPost2010PropOp37
 70
     0
102
RTVSPost2010Prop38
140
0.0
102
RTVSPost2010PropOp38
 70
     0
102
RTVSPost2010Prop39
140
1.0
102
RTVSPost2010PropOp39
 70
     0
102
RTVSPost2010Prop40
 90
        0
102
RTVSPost2010PropOp40
 70
     0
102
RTVSPost2010Prop41ColorIndex
 90
       18
102
RTVSPost2010Prop41ColorRGB
 90
        0
102
RTVSPost2010PropOp41
 70
     0
102
RTVSPost2010Prop42
 90
       50
102
RTVSPost2010PropOp42
 70
     0
102
RTVSPost2010Prop43
 90
        3
102
RTVSPost2010PropOp43
 70
     0
102
RTVSPost2010Prop44ColorIndex
 90
        5
102
RTVSPost2010Prop44ColorRGB
 90
      255
102
RTVSPost2010PropOp44
 70
     0
102
RTVSPost2010Prop45
280
     0
102
RTVSPost2010PropOp45
 70
     0
102
RTVSPost2010Prop46
 90
       50
102
RTVSPost2010PropOp46
 70
     0
102
RTVSPost2010Prop47
 90
       50
102
RTVSPost2010PropOp47
 70
     0
102
RTVSPost2010Prop48
 90
       50
102
RTVSPost2010PropOp48
 70
     0
102
RTVSPost2010Prop49
280
     0
102
RTVSPost2010PropOp49
 70
     0
102
RTVSPost2010Prop50
 90
       50
102
RTVSPost2010PropOp50
 70
     0
102
RTVSPost2010Prop51ColorIndex
 90
      256
102
RTVSPost2010Prop51ColorRGB
 90
-16777216
102
RTVSPost2010PropOp51
 70
     0
102
RTVSPost2010Prop52
140
1.0
102
RTVSPost2010PropOp52
 70
     0
102
RTVSPost2010Prop53
 90
        2
102
RTVSPost2010PropOp53
 70
     0
102
RTVSPost2010Prop54
  1
strokes_ogs.tif
102
RTVSPost2010PropOp54
 70
     0
102
RTVSPost2010Prop55
280
     0
102
RTVSPost2010PropOp55
 70
     0
102
RTVSPost2010Prop56
140
1.0
102
RTVSPost2010PropOp56
 70
     0
102
RTVSPost2010Prop57
140
1.0
102
RTVSPost2010PropOp57
 70
     0
  0
XRECORD
  5
3F4
102
{ACAD_REACTORS
330
3F3
102
}
330
3F3
100
AcDbXrecord
280
     1
102
RTVSPropertyOp0
 70
     1
102
RTVSPropertyOp1
 70
     1
102
RTVSPropertyOp2
 70
     1
102
RTVSPropertyOp3
 70
     1
102
RTVSPropertyOp4
 70
     1
102
RTVSPropertyOp5
 70
     1
102
RTVSPropertyOp6
 70
     1
102
RTVSPropertyOp7
 70
     1
102
RTVSPropertyOp8
 70
     1
102
RTVSPropertyOp9
 70
     1
102
RTVSPropertyOp10
 70
     1
102
RTVSPropertyOp11
 70
     1
102
RTVSPropertyOp12
 70
     1
102
RTVSPropertyOp13
 70
     1
102
RTVSPropertyOp14
 70
     1
102
RTVSPropertyOp15
 70
     1
102
RTVSPropertyOp16
 70
     1
102
RTVSPropertyOp17
 70
     1
102
RTVSPropertyOp18
 70
     1
102
RTVSPropertyOp19
 70
     1
102
RTVSPropertyOp20
 70
     1
102
RTVSPropertyOp21
 70
     1
102
RTVSPropertyOp22
 70
     1
102
RTVSPropertyOp23
 70
     1
102
RTVSPropertyOp24
 70
     1
102
RTVSPropertyOp25
 70
     1
102
RTVSPropertyOp26
 70
     1
102
RTVSPropertyOp27
 70
     1
102
RTVSPropertyOp28
 70
     1
102
RTVSPropertyOp29
 70
     1
102
RTVSPropertyOp30
 70
     1
102
RTVSPropertyOp31
 70
     1
102
RTVSPropertyOp32
 70
     1
102
RTVSPropertyOp33
 70
     1
102
RTVSPropertyOp34
 70
     1
102
RTVSPropertyOp35
 70
     1
102
RTVSPropertyOp36
 70
     1
102
RTVSPropertyOp37
 70
     1
102
RTVSPropertyOp38
 70
     1
102
RTVSPropertyOp39
 70
     1
102
RTVSPropertyOp40
 70
     1
102
RTVSPropertyOp41
 70
     1
102
RTVSPropertyOp42
 70
     1
102
RTVSPropertyOp43
 70
     1
102
RTVSPropertyOp44
 70
     1
102
RTVSPropertyOp45
 70
     1
102
RTVSPropertyOp46
 70
     1
102
RTVSPropertyOp47
 70
     1
102
RTVSPropertyOp48
 70
     1
102
RTVSPropertyOp49
 70
     1
102
RTVSPropertyOp50
 70
     1
102
RTVSPropertyOp51
 70
     0
102
RTVSPropertyOp52
 70
     0
102
RTVSPropertyOp53
 70
     1
102
RTVSPropertyOp54
 70
     1
102
RTVSPropertyOp55
 70
     1
102
RTVSPropertyOp56
 70
     1
102
RTVSPropertyOp57
 70
     1
102
RTVSPost2010Prop28
280
     0
102
RTVSPost2010PropOp28
 70
     1
102
RTVSPost2010Prop29
280
     1
102
RTVSPost2010PropOp29
 70
     1
102
RTVSPost2010Prop30
280
     1
102
RTVSPost2010PropOp30
 70
     1
102
RTVSPost2010Prop31
280
     0
102
RTVSPost2010PropOp31
 70
     1
102
RTVSPost2010Prop32
280
     0
102
RTVSPost2010PropOp32
 70
     1
102
RTVSPost2010Prop33
280
     0
102
RTVSPost2010PropOp33
 70
     1
102
RTVSPost2010Prop34
280
     0
102
RTVSPost2010PropOp34
 70
     1
102
RTVSPost2010Prop35
280
     0
102
RTVSPost2010PropOp35
 70
     1
102
RTVSPost2010Prop36
280
     0
102
RTVSPost2010PropOp36
 70
     1
102
RTVSPost2010Prop37
 90
       50
102
RTVSPost2010PropOp37
 70
     1
102
RTVSPost2010Prop38
140
0.0
102
RTVSPost2010PropOp38
 70
     1
102
RTVSPost2010Prop39
140
1.0
102
RTVSPost2010PropOp39
 70
     1
102
RTVSPost2010Prop40
 90
        0
102
RTVSPost2010PropOp40
 70
     1
102
RTVSPost2010Prop41ColorIndex
 90
       18
102
RTVSPost2010Prop41ColorRGB
 90
        0
102
RTVSPost2010PropOp41
 70
     1
102
RTVSPost2010Prop42
 90
       50
102
RTVSPost2010PropOp42
 70
     1
102
RTVSPost2010Prop43
 90
        3
102
RTVSPost2010PropOp43
 70
     1
102
RTVSPost2010Prop44ColorIndex
 90
        5
102
RTVSPost2010Prop44ColorRGB
 90
      255
102
RTVSPost2010PropOp44
 70
     1
102
RTVSPost2010Prop45
280
     0
102
RTVSPost2010PropOp45
 70
     1
102
RTVSPost2010Prop46
 90
       50
102
RTVSPost2010PropOp46
 70
     1
102
RTVSPost2010Prop47
 90
       50
102
RTVSPost2010PropOp47
 70
     1
102
RTVSPost2010Prop48
 90
       50
102
RTVSPost2010PropOp48
 70
     1
102
RTVSPost2010Prop49
280
     0
102
RTVSPost2010PropOp49
 70
     1
102
RTVSPost2010Prop50
 90
       50
102
RTVSPost2010PropOp50
 70
     1
102
RTVSPost2010Prop51ColorIndex
 90
      256
102
RTVSPost2010Prop51ColorRGB
 90
-16777216
102
RTVSPost2010PropOp51
 70
     0
102
RTVSPost2010Prop52
140
1.0
102
RTVSPost2010PropOp52
 70
     0
102
RTVSPost2010Prop53
 90
        2
102
RTVSPost2010PropOp53
 70
     1
102
RTVSPost2010Prop54
  1
strokes_ogs.tif
102
RTVSPost2010PropOp54
 70
     1
102
RTVSPost2010Prop55
280
     0
102
RTVSPost2010PropOp55
 70
     1
102
RTVSPost2010Prop56
140
1.0
102
RTVSPost2010PropOp56
 70
     1
102
RTVSPost2010Prop57
140
1.0
102
RTVSPost2010PropOp57
 70
     1
  0
XRECORD
  5
3FC
102
{ACAD_REACTORS
330
3FB
102
}
330
3FB
100
AcDbXrecord
280
     1
102
RTVSPropertyOp0
 70
     0
102
RTVSPropertyOp1
 70
     0
102
RTVSPropertyOp2
 70
     0
102
RTVSPropertyOp3
 70
     0
102
RTVSPropertyOp4
 70
     0
102
RTVSPropertyOp5
 70
     0
102
RTVSPropertyOp6
 70
     0
102
RTVSPropertyOp7
 70
     0
102
RTVSPropertyOp8
 70
     0
102
RTVSPropertyOp9
 70
     0
102
RTVSPropertyOp10
 70
     0
102
RTVSPropertyOp11
 70
     0
102
RTVSPropertyOp12
 70
     0
102
RTVSPropertyOp13
 70
     0
102
RTVSPropertyOp14
 70
     2
102
RTVSPropertyOp15
 70
     0
102
RTVSPropertyOp16
 70
     0
102
RTVSPropertyOp17
 70
     0
102
RTVSPropertyOp18
 70
     0
102
RTVSPropertyOp19
 70
     0
102
RTVSPropertyOp20
 70
     0
102
RTVSPropertyOp21
 70
     0
102
RTVSPropertyOp22
 70
     0
102
RTVSPropertyOp23
 70
     0
102
RTVSPropertyOp24
 70
     0
102
RTVSPropertyOp25
 70
     0
102
RTVSPropertyOp26
 70
     0
102
RTVSPropertyOp27
 70
     0
102
RTVSPropertyOp28
 70
     0
102
RTVSPropertyOp29
 70
     0
102
RTVSPropertyOp30
 70
     0
102
RTVSPropertyOp31
 70
     0
102
RTVSPropertyOp32
 70
     0
102
RTVSPropertyOp33
 70
     0
102
RTVSPropertyOp34
 70
     0
102
RTVSPropertyOp35
 70
     0
102
RTVSPropertyOp36
 70
     0
102
RTVSPropertyOp37
 70
     0
102
RTVSPropertyOp38
 70
     0
102
RTVSPropertyOp39
 70
     0
102
RTVSPropertyOp40
 70
     0
102
RTVSPropertyOp41
 70
     0
102
RTVSPropertyOp42
 70
     0
102
RTVSPropertyOp43
 70
     0
102
RTVSPropertyOp44
 70
     0
102
RTVSPropertyOp45
 70
     0
102
RTVSPropertyOp46
 70
     0
102
RTVSPropertyOp47
 70
     0
102
RTVSPropertyOp48
 70
     0
102
RTVSPropertyOp49
 70
     0
102
RTVSPropertyOp50
 70
     0
102
RTVSPropertyOp51
 70
     0
102
RTVSPropertyOp52
 70
     0
102
RTVSPropertyOp53
 70
     0
102
RTVSPropertyOp54
 70
     0
102
RTVSPropertyOp55
 70
     0
102
RTVSPropertyOp56
 70
     0
102
RTVSPropertyOp57
 70
     0
102
RTVSPost2010Prop28
280
     0
102
RTVSPost2010PropOp28
 70
     0
102
RTVSPost2010Prop29
280
     1
102
RTVSPost2010PropOp29
 70
     0
102
RTVSPost2010Prop30
280
     1
102
RTVSPost2010PropOp30
 70
     0
102
RTVSPost2010Prop31
280
     0
102
RTVSPost2010PropOp31
 70
     0
102
RTVSPost2010Prop32
280
     0
102
RTVSPost2010PropOp32
 70
     0
102
RTVSPost2010Prop33
280
     0
102
RTVSPost2010PropOp33
 70
     0
102
RTVSPost2010Prop34
280
     0
102
RTVSPost2010PropOp34
 70
     0
102
RTVSPost2010Prop35
280
     0
102
RTVSPost2010PropOp35
 70
     0
102
RTVSPost2010Prop36
280
     0
102
RTVSPost2010PropOp36
 70
     0
102
RTVSPost2010Prop37
 90
       50
102
RTVSPost2010PropOp37
 70
     0
102
RTVSPost2010Prop38
140
0.0
102
RTVSPost2010PropOp38
 70
     0
102
RTVSPost2010Prop39
140
1.0
102
RTVSPost2010PropOp39
 70
     0
102
RTVSPost2010Prop40
 90
        0
102
RTVSPost2010PropOp40
 70
     0
102
RTVSPost2010Prop41ColorIndex
 90
       18
102
RTVSPost2010Prop41ColorRGB
 90
        0
102
RTVSPost2010PropOp41
 70
     0
102
RTVSPost2010Prop42
 90
       50
102
RTVSPost2010PropOp42
 70
     0
102
RTVSPost2010Prop43
 90
        3
102
RTVSPost2010PropOp43
 70
     0
102
RTVSPost2010Prop44ColorIndex
 90
        5
102
RTVSPost2010Prop44ColorRGB
 90
      255
102
RTVSPost2010PropOp44
 70
     0
102
RTVSPost2010Prop45
280
     0
102
RTVSPost2010PropOp45
 70
     0
102
RTVSPost2010Prop46
 90
       50
102
RTVSPost2010PropOp46
 70
     0
102
RTVSPost2010Prop47
 90
       50
102
RTVSPost2010PropOp47
 70
     0
102
RTVSPost2010Prop48
 90
       50
102
RTVSPost2010PropOp48
 70
     0
102
RTVSPost2010Prop49
280
     0
102
RTVSPost2010PropOp49
 70
     0
102
RTVSPost2010Prop50
 90
       50
102
RTVSPost2010PropOp50
 70
     0
102
RTVSPost2010Prop51ColorIndex
 90
      256
102
RTVSPost2010Prop51ColorRGB
 90
-16777216
102
RTVSPost2010PropOp51
 70
     0
102
RTVSPost2010Prop52
140
1.0
102
RTVSPost2010PropOp52
 70
     0
102
RTVSPost2010Prop53
 90
        2
102
RTVSPost2010PropOp53
 70
     0
102
RTVSPost2010Prop54
  1
strokes_ogs.tif
102
RTVSPost2010PropOp54
 70
     0
102
RTVSPost2010Prop55
280
     0
102
RTVSPost2010PropOp55
 70
     0
102
RTVSPost2010Prop56
140
1.0
102
RTVSPost2010PropOp56
 70
     0
102
RTVSPost2010Prop57
140
1.0
102
RTVSPost2010PropOp57
 70
     0
  0
XRECORD
  5
3EA
102
{ACAD_REACTORS
330
3E9
102
}
330
3E9
100
AcDbXrecord
280
     1
102
RTVSPropertyOp0
 70
     1
102
RTVSPropertyOp1
 70
     1
102
RTVSPropertyOp2
 70
     1
102
RTVSPropertyOp3
 70
     1
102
RTVSPropertyOp4
 70
     1
102
RTVSPropertyOp5
 70
     1
102
RTVSPropertyOp6
 70
     1
102
RTVSPropertyOp7
 70
     1
102
RTVSPropertyOp8
 70
     1
102
RTVSPropertyOp9
 70
     1
102
RTVSPropertyOp10
 70
     1
102
RTVSPropertyOp11
 70
     1
102
RTVSPropertyOp12
 70
     1
102
RTVSPropertyOp13
 70
     1
102
RTVSPropertyOp14
 70
     1
102
RTVSPropertyOp15
 70
     1
102
RTVSPropertyOp16
 70
     1
102
RTVSPropertyOp17
 70
     1
102
RTVSPropertyOp18
 70
     1
102
RTVSPropertyOp19
 70
     1
102
RTVSPropertyOp20
 70
     1
102
RTVSPropertyOp21
 70
     1
102
RTVSPropertyOp22
 70
     1
102
RTVSPropertyOp23
 70
     1
102
RTVSPropertyOp24
 70
     1
102
RTVSPropertyOp25
 70
     1
102
RTVSPropertyOp26
 70
     1
102
RTVSPropertyOp27
 70
     1
102
RTVSPropertyOp28
 70
     1
102
RTVSPropertyOp29
 70
     1
102
RTVSPropertyOp30
 70
     1
102
RTVSPropertyOp31
 70
     1
102
RTVSPropertyOp32
 70
     1
102
RTVSPropertyOp33
 70
     1
102
RTVSPropertyOp34
 70
     1
102
RTVSPropertyOp35
 70
     1
102
RTVSPropertyOp36
 70
     1
102
RTVSPropertyOp37
 70
     1
102
RTVSPropertyOp38
 70
     1
102
RTVSPropertyOp39
 70
     1
102
RTVSPropertyOp40
 70
     1
102
RTVSPropertyOp41
 70
     1
102
RTVSPropertyOp42
 70
     1
102
RTVSPropertyOp43
 70
     1
102
RTVSPropertyOp44
 70
     1
102
RTVSPropertyOp45
 70
     1
102
RTVSPropertyOp46
 70
     1
102
RTVSPropertyOp47
 70
     1
102
RTVSPropertyOp48
 70
     1
102
RTVSPropertyOp49
 70
     1
102
RTVSPropertyOp50
 70
     1
102
RTVSPropertyOp51
 70
     0
102
RTVSPropertyOp52
 70
     0
102
RTVSPropertyOp53
 70
     1
102
RTVSPropertyOp54
 70
     1
102
RTVSPropertyOp55
 70
     1
102
RTVSPropertyOp56
 70
     1
102
RTVSPropertyOp57
 70
     1
102
RTVSPost2010Prop28
280
     0
102
RTVSPost2010PropOp28
 70
     1
102
RTVSPost2010Prop29
280
     1
102
RTVSPost2010PropOp29
 70
     1
102
RTVSPost2010Prop30
280
     1
102
RTVSPost2010PropOp30
 70
     1
102
RTVSPost2010Prop31
280
     0
102
RTVSPost2010PropOp31
 70
     1
102
RTVSPost2010Prop32
280
     0
102
RTVSPost2010PropOp32
 70
     1
102
RTVSPost2010Prop33
280
     0
102
RTVSPost2010PropOp33
 70
     1
102
RTVSPost2010Prop34
280
     0
102
RTVSPost2010PropOp34
 70
     1
102
RTVSPost2010Prop35
280
     0
102
RTVSPost2010PropOp35
 70
     1
102
RTVSPost2010Prop36
280
     0
102
RTVSPost2010PropOp36
 70
     1
102
RTVSPost2010Prop37
 90
       50
102
RTVSPost2010PropOp37
 70
     1
102
RTVSPost2010Prop38
140
0.0
102
RTVSPost2010PropOp38
 70
     1
102
RTVSPost2010Prop39
140
1.0
102
RTVSPost2010PropOp39
 70
     1
102
RTVSPost2010Prop40
 90
        0
102
RTVSPost2010PropOp40
 70
     1
102
RTVSPost2010Prop41ColorIndex
 90
       18
102
RTVSPost2010Prop41ColorRGB
 90
        0
102
RTVSPost2010PropOp41
 70
     1
102
RTVSPost2010Prop42
 90
       50
102
RTVSPost2010PropOp42
 70
     1
102
RTVSPost2010Prop43
 90
        3
102
RTVSPost2010PropOp43
 70
     1
102
RTVSPost2010Prop44ColorIndex
 90
        5
102
RTVSPost2010Prop44ColorRGB
 90
      255
102
RTVSPost2010PropOp44
 70
     1
102
RTVSPost2010Prop45
280
     0
102
RTVSPost2010PropOp45
 70
     1
102
RTVSPost2010Prop46
 90
       50
102
RTVSPost2010PropOp46
 70
     1
102
RTVSPost2010Prop47
 90
       50
102
RTVSPost2010PropOp47
 70
     1
102
RTVSPost2010Prop48
 90
       50
102
RTVSPost2010PropOp48
 70
     1
102
RTVSPost2010Prop49
280
     0
102
RTVSPost2010PropOp49
 70
     1
102
RTVSPost2010Prop50
 90
       50
102
RTVSPost2010PropOp50
 70
     1
102
RTVSPost2010Prop51ColorIndex
 90
      256
102
RTVSPost2010Prop51ColorRGB
 90
-16777216
102
RTVSPost2010PropOp51
 70
     0
102
RTVSPost2010Prop52
140
1.0
102
RTVSPost2010PropOp52
 70
     0
102
RTVSPost2010Prop53
 90
        2
102
RTVSPost2010PropOp53
 70
     1
102
RTVSPost2010Prop54
  1
strokes_ogs.tif
102
RTVSPost2010PropOp54
 70
     1
102
RTVSPost2010Prop55
280
     0
102
RTVSPost2010PropOp55
 70
     1
102
RTVSPost2010Prop56
140
1.0
102
RTVSPost2010PropOp56
 70
     1
102
RTVSPost2010Prop57
140
1.0
102
RTVSPost2010PropOp57
 70
     1
  0
XRECORD
  5
408
102
{ACAD_REACTORS
330
407
102
}
330
407
100
AcDbXrecord
280
     1
102
RTVSPropertyOp0
 70
     1
102
RTVSPropertyOp1
 70
     1
102
RTVSPropertyOp2
 70
     1
102
RTVSPropertyOp3
 70
     1
102
RTVSPropertyOp4
 70
     1
102
RTVSPropertyOp5
 70
     1
102
RTVSPropertyOp6
 70
     1
102
RTVSPropertyOp7
 70
     1
102
RTVSPropertyOp8
 70
     1
102
RTVSPropertyOp9
 70
     1
102
RTVSPropertyOp10
 70
     1
102
RTVSPropertyOp11
 70
     1
102
RTVSPropertyOp12
 70
     1
102
RTVSPropertyOp13
 70
     1
102
RTVSPropertyOp14
 70
     1
102
RTVSPropertyOp15
 70
     1
102
RTVSPropertyOp16
 70
     1
102
RTVSPropertyOp17
 70
     1
102
RTVSPropertyOp18
 70
     1
102
RTVSPropertyOp19
 70
     1
102
RTVSPropertyOp20
 70
     1
102
RTVSPropertyOp21
 70
     1
102
RTVSPropertyOp22
 70
     1
102
RTVSPropertyOp23
 70
     1
102
RTVSPropertyOp24
 70
     1
102
RTVSPropertyOp25
 70
     1
102
RTVSPropertyOp26
 70
     1
102
RTVSPropertyOp27
 70
     1
102
RTVSPropertyOp28
 70
     1
102
RTVSPropertyOp29
 70
     1
102
RTVSPropertyOp30
 70
     1
102
RTVSPropertyOp31
 70
     1
102
RTVSPropertyOp32
 70
     1
102
RTVSPropertyOp33
 70
     1
102
RTVSPropertyOp34
 70
     1
102
RTVSPropertyOp35
 70
     1
102
RTVSPropertyOp36
 70
     1
102
RTVSPropertyOp37
 70
     1
102
RTVSPropertyOp38
 70
     1
102
RTVSPropertyOp39
 70
     1
102
RTVSPropertyOp40
 70
     1
102
RTVSPropertyOp41
 70
     1
102
RTVSPropertyOp42
 70
     1
102
RTVSPropertyOp43
 70
     1
102
RTVSPropertyOp44
 70
     1
102
RTVSPropertyOp45
 70
     1
102
RTVSPropertyOp46
 70
     1
102
RTVSPropertyOp47
 70
     1
102
RTVSPropertyOp48
 70
     1
102
RTVSPropertyOp49
 70
     1
102
RTVSPropertyOp50
 70
     1
102
RTVSPropertyOp51
 70
     0
102
RTVSPropertyOp52
 70
     0
102
RTVSPropertyOp53
 70
     1
102
RTVSPropertyOp54
 70
     1
102
RTVSPropertyOp55
 70
     1
102
RTVSPropertyOp56
 70
     1
102
RTVSPropertyOp57
 70
     1
102
RTVSPost2010Prop28
280
     0
102
RTVSPost2010PropOp28
 70
     1
102
RTVSPost2010Prop29
280
     1
102
RTVSPost2010PropOp29
 70
     1
102
RTVSPost2010Prop30
280
     1
102
RTVSPost2010PropOp30
 70
     1
102
RTVSPost2010Prop31
280
     0
102
RTVSPost2010PropOp31
 70
     1
102
RTVSPost2010Prop32
280
     0
102
RTVSPost2010PropOp32
 70
     1
102
RTVSPost2010Prop33
280
     0
102
RTVSPost2010PropOp33
 70
     1
102
RTVSPost2010Prop34
280
     0
102
RTVSPost2010PropOp34
 70
     1
102
RTVSPost2010Prop35
280
     0
102
RTVSPost2010PropOp35
 70
     1
102
RTVSPost2010Prop36
280
     0
102
RTVSPost2010PropOp36
 70
     1
102
RTVSPost2010Prop37
 90
       50
102
RTVSPost2010PropOp37
 70
     1
102
RTVSPost2010Prop38
140
0.0
102
RTVSPost2010PropOp38
 70
     1
102
RTVSPost2010Prop39
140
1.0
102
RTVSPost2010PropOp39
 70
     1
102
RTVSPost2010Prop40
 90
        0
102
RTVSPost2010PropOp40
 70
     1
102
RTVSPost2010Prop41ColorIndex
 90
       18
102
RTVSPost2010Prop41ColorRGB
 90
        0
102
RTVSPost2010PropOp41
 70
     1
102
RTVSPost2010Prop42
 90
       50
102
RTVSPost2010PropOp42
 70
     1
102
RTVSPost2010Prop43
 90
        3
102
RTVSPost2010PropOp43
 70
     1
102
RTVSPost2010Prop44ColorIndex
 90
        5
102
RTVSPost2010Prop44ColorRGB
 90
      255
102
RTVSPost2010PropOp44
 70
     1
102
RTVSPost2010Prop45
280
     0
102
RTVSPost2010PropOp45
 70
     1
102
RTVSPost2010Prop46
 90
       50
102
RTVSPost2010PropOp46
 70
     1
102
RTVSPost2010Prop47
 90
       50
102
RTVSPost2010PropOp47
 70
     1
102
RTVSPost2010Prop48
 90
       50
102
RTVSPost2010PropOp48
 70
     1
102
RTVSPost2010Prop49
280
     0
102
RTVSPost2010PropOp49
 70
     1
102
RTVSPost2010Prop50
 90
       50
102
RTVSPost2010PropOp50
 70
     1
102
RTVSPost2010Prop51ColorIndex
 90
      256
102
RTVSPost2010Prop51ColorRGB
 90
-16777216
102
RTVSPost2010PropOp51
 70
     0
102
RTVSPost2010Prop52
140
1.0
102
RTVSPost2010PropOp52
 70
     0
102
RTVSPost2010Prop53
 90
        2
102
RTVSPost2010PropOp53
 70
     1
102
RTVSPost2010Prop54
  1
strokes_ogs.tif
102
RTVSPost2010PropOp54
 70
     1
102
RTVSPost2010Prop55
280
     0
102
RTVSPost2010PropOp55
 70
     1
102
RTVSPost2010Prop56
140
1.0
102
RTVSPost2010PropOp56
 70
     1
102
RTVSPost2010Prop57
140
1.0
102
RTVSPost2010PropOp57
 70
     1
  0
XRECORD
  5
406
102
{ACAD_REACTORS
330
405
102
}
330
405
100
AcDbXrecord
280
     1
102
RTVSPropertyOp0
 70
     1
102
RTVSPropertyOp1
 70
     1
102
RTVSPropertyOp2
 70
     1
102
RTVSPropertyOp3
 70
     1
102
RTVSPropertyOp4
 70
     1
102
RTVSPropertyOp5
 70
     1
102
RTVSPropertyOp6
 70
     1
102
RTVSPropertyOp7
 70
     1
102
RTVSPropertyOp8
 70
     1
102
RTVSPropertyOp9
 70
     1
102
RTVSPropertyOp10
 70
     1
102
RTVSPropertyOp11
 70
     1
102
RTVSPropertyOp12
 70
     1
102
RTVSPropertyOp13
 70
     1
102
RTVSPropertyOp14
 70
     1
102
RTVSPropertyOp15
 70
     1
102
RTVSPropertyOp16
 70
     1
102
RTVSPropertyOp17
 70
     1
102
RTVSPropertyOp18
 70
     1
102
RTVSPropertyOp19
 70
     1
102
RTVSPropertyOp20
 70
     1
102
RTVSPropertyOp21
 70
     1
102
RTVSPropertyOp22
 70
     1
102
RTVSPropertyOp23
 70
     1
102
RTVSPropertyOp24
 70
     1
102
RTVSPropertyOp25
 70
     1
102
RTVSPropertyOp26
 70
     1
102
RTVSPropertyOp27
 70
     1
102
RTVSPropertyOp28
 70
     1
102
RTVSPropertyOp29
 70
     1
102
RTVSPropertyOp30
 70
     1
102
RTVSPropertyOp31
 70
     1
102
RTVSPropertyOp32
 70
     1
102
RTVSPropertyOp33
 70
     1
102
RTVSPropertyOp34
 70
     1
102
RTVSPropertyOp35
 70
     1
102
RTVSPropertyOp36
 70
     1
102
RTVSPropertyOp37
 70
     1
102
RTVSPropertyOp38
 70
     1
102
RTVSPropertyOp39
 70
     1
102
RTVSPropertyOp40
 70
     1
102
RTVSPropertyOp41
 70
     1
102
RTVSPropertyOp42
 70
     1
102
RTVSPropertyOp43
 70
     1
102
RTVSPropertyOp44
 70
     1
102
RTVSPropertyOp45
 70
     1
102
RTVSPropertyOp46
 70
     1
102
RTVSPropertyOp47
 70
     1
102
RTVSPropertyOp48
 70
     1
102
RTVSPropertyOp49
 70
     1
102
RTVSPropertyOp50
 70
     1
102
RTVSPropertyOp51
 70
     0
102
RTVSPropertyOp52
 70
     0
102
RTVSPropertyOp53
 70
     1
102
RTVSPropertyOp54
 70
     1
102
RTVSPropertyOp55
 70
     1
102
RTVSPropertyOp56
 70
     1
102
RTVSPropertyOp57
 70
     1
102
RTVSPost2010Prop28
280
     0
102
RTVSPost2010PropOp28
 70
     1
102
RTVSPost2010Prop29
280
     1
102
RTVSPost2010PropOp29
 70
     1
102
RTVSPost2010Prop30
280
     1
102
RTVSPost2010PropOp30
 70
     1
102
RTVSPost2010Prop31
280
     0
102
RTVSPost2010PropOp31
 70
     1
102
RTVSPost2010Prop32
280
     0
102
RTVSPost2010PropOp32
 70
     1
102
RTVSPost2010Prop33
280
     0
102
RTVSPost2010PropOp33
 70
     1
102
RTVSPost2010Prop34
280
     0
102
RTVSPost2010PropOp34
 70
     1
102
RTVSPost2010Prop35
280
     0
102
RTVSPost2010PropOp35
 70
     1
102
RTVSPost2010Prop36
280
     0
102
RTVSPost2010PropOp36
 70
     1
102
RTVSPost2010Prop37
 90
       50
102
RTVSPost2010PropOp37
 70
     1
102
RTVSPost2010Prop38
140
0.0
102
RTVSPost2010PropOp38
 70
     1
102
RTVSPost2010Prop39
140
1.0
102
RTVSPost2010PropOp39
 70
     1
102
RTVSPost2010Prop40
 90
        0
102
RTVSPost2010PropOp40
 70
     1
102
RTVSPost2010Prop41ColorIndex
 90
       18
102
RTVSPost2010Prop41ColorRGB
 90
        0
102
RTVSPost2010PropOp41
 70
     1
102
RTVSPost2010Prop42
 90
       50
102
RTVSPost2010PropOp42
 70
     1
102
RTVSPost2010Prop43
 90
        3
102
RTVSPost2010PropOp43
 70
     1
102
RTVSPost2010Prop44ColorIndex
 90
        5
102
RTVSPost2010Prop44ColorRGB
 90
      255
102
RTVSPost2010PropOp44
 70
     1
102
RTVSPost2010Prop45
280
     0
102
RTVSPost2010PropOp45
 70
     1
102
RTVSPost2010Prop46
 90
       50
102
RTVSPost2010PropOp46
 70
     1
102
RTVSPost2010Prop47
 90
       50
102
RTVSPost2010PropOp47
 70
     1
102
RTVSPost2010Prop48
 90
       50
102
RTVSPost2010PropOp48
 70
     1
102
RTVSPost2010Prop49
280
     0
102
RTVSPost2010PropOp49
 70
     1
102
RTVSPost2010Prop50
 90
       50
102
RTVSPost2010PropOp50
 70
     1
102
RTVSPost2010Prop51ColorIndex
 90
      256
102
RTVSPost2010Prop51ColorRGB
 90
-16777216
102
RTVSPost2010PropOp51
 70
     0
102
RTVSPost2010Prop52
140
1.0
102
RTVSPost2010PropOp52
 70
     0
102
RTVSPost2010Prop53
 90
        2
102
RTVSPost2010PropOp53
 70
     1
102
RTVSPost2010Prop54
  1
strokes_ogs.tif
102
RTVSPost2010PropOp54
 70
     1
102
RTVSPost2010Prop55
280
     0
102
RTVSPost2010PropOp55
 70
     1
102
RTVSPost2010Prop56
140
1.0
102
RTVSPost2010PropOp56
 70
     1
102
RTVSPost2010Prop57
140
1.0
102
RTVSPost2010PropOp57
 70
     1
  0
XRECORD
  5
400
102
{ACAD_REACTORS
330
3FF
102
}
330
3FF
100
AcDbXrecord
280
     1
102
RTVSPropertyOp0
 70
     1
102
RTVSPropertyOp1
 70
     1
102
RTVSPropertyOp2
 70
     1
102
RTVSPropertyOp3
 70
     1
102
RTVSPropertyOp4
 70
     1
102
RTVSPropertyOp5
 70
     1
102
RTVSPropertyOp6
 70
     1
102
RTVSPropertyOp7
 70
     1
102
RTVSPropertyOp8
 70
     1
102
RTVSPropertyOp9
 70
     1
102
RTVSPropertyOp10
 70
     1
102
RTVSPropertyOp11
 70
     1
102
RTVSPropertyOp12
 70
     1
102
RTVSPropertyOp13
 70
     1
102
RTVSPropertyOp14
 70
     1
102
RTVSPropertyOp15
 70
     1
102
RTVSPropertyOp16
 70
     1
102
RTVSPropertyOp17
 70
     1
102
RTVSPropertyOp18
 70
     1
102
RTVSPropertyOp19
 70
     1
102
RTVSPropertyOp20
 70
     1
102
RTVSPropertyOp21
 70
     1
102
RTVSPropertyOp22
 70
     1
102
RTVSPropertyOp23
 70
     1
102
RTVSPropertyOp24
 70
     1
102
RTVSPropertyOp25
 70
     1
102
RTVSPropertyOp26
 70
     1
102
RTVSPropertyOp27
 70
     1
102
RTVSPropertyOp28
 70
     1
102
RTVSPropertyOp29
 70
     1
102
RTVSPropertyOp30
 70
     1
102
RTVSPropertyOp31
 70
     1
102
RTVSPropertyOp32
 70
     1
102
RTVSPropertyOp33
 70
     1
102
RTVSPropertyOp34
 70
     1
102
RTVSPropertyOp35
 70
     1
102
RTVSPropertyOp36
 70
     1
102
RTVSPropertyOp37
 70
     1
102
RTVSPropertyOp38
 70
     1
102
RTVSPropertyOp39
 70
     1
102
RTVSPropertyOp40
 70
     1
102
RTVSPropertyOp41
 70
     1
102
RTVSPropertyOp42
 70
     1
102
RTVSPropertyOp43
 70
     1
102
RTVSPropertyOp44
 70
     1
102
RTVSPropertyOp45
 70
     1
102
RTVSPropertyOp46
 70
     1
102
RTVSPropertyOp47
 70
     1
102
RTVSPropertyOp48
 70
     1
102
RTVSPropertyOp49
 70
     1
102
RTVSPropertyOp50
 70
     1
102
RTVSPropertyOp51
 70
     0
102
RTVSPropertyOp52
 70
     0
102
RTVSPropertyOp53
 70
     1
102
RTVSPropertyOp54
 70
     1
102
RTVSPropertyOp55
 70
     1
102
RTVSPropertyOp56
 70
     1
102
RTVSPropertyOp57
 70
     1
102
RTVSPost2010Prop28
280
     0
102
RTVSPost2010PropOp28
 70
     1
102
RTVSPost2010Prop29
280
     1
102
RTVSPost2010PropOp29
 70
     1
102
RTVSPost2010Prop30
280
     1
102
RTVSPost2010PropOp30
 70
     1
102
RTVSPost2010Prop31
280
     0
102
RTVSPost2010PropOp31
 70
     1
102
RTVSPost2010Prop32
280
     0
102
RTVSPost2010PropOp32
 70
     1
102
RTVSPost2010Prop33
280
     0
102
RTVSPost2010PropOp33
 70
     1
102
RTVSPost2010Prop34
280
     0
102
RTVSPost2010PropOp34
 70
     1
102
RTVSPost2010Prop35
280
     0
102
RTVSPost2010PropOp35
 70
     1
102
RTVSPost2010Prop36
280
     0
102
RTVSPost2010PropOp36
 70
     1
102
RTVSPost2010Prop37
 90
       50
102
RTVSPost2010PropOp37
 70
     1
102
RTVSPost2010Prop38
140
0.0
102
RTVSPost2010PropOp38
 70
     1
102
RTVSPost2010Prop39
140
1.0
102
RTVSPost2010PropOp39
 70
     1
102
RTVSPost2010Prop40
 90
        0
102
RTVSPost2010PropOp40
 70
     1
102
RTVSPost2010Prop41ColorIndex
 90
       18
102
RTVSPost2010Prop41ColorRGB
 90
        0
102
RTVSPost2010PropOp41
 70
     1
102
RTVSPost2010Prop42
 90
       50
102
RTVSPost2010PropOp42
 70
     1
102
RTVSPost2010Prop43
 90
        3
102
RTVSPost2010PropOp43
 70
     1
102
RTVSPost2010Prop44ColorIndex
 90
        5
102
RTVSPost2010Prop44ColorRGB
 90
      255
102
RTVSPost2010PropOp44
 70
     1
102
RTVSPost2010Prop45
280
     0
102
RTVSPost2010PropOp45
 70
     1
102
RTVSPost2010Prop46
 90
       50
102
RTVSPost2010PropOp46
 70
     1
102
RTVSPost2010Prop47
 90
       50
102
RTVSPost2010PropOp47
 70
     1
102
RTVSPost2010Prop48
 90
       50
102
RTVSPost2010PropOp48
 70
     1
102
RTVSPost2010Prop49
280
     0
102
RTVSPost2010PropOp49
 70
     1
102
RTVSPost2010Prop50
 90
       50
102
RTVSPost2010PropOp50
 70
     1
102
RTVSPost2010Prop51ColorIndex
 90
      256
102
RTVSPost2010Prop51ColorRGB
 90
-16777216
102
RTVSPost2010PropOp51
 70
     0
102
RTVSPost2010Prop52
140
1.0
102
RTVSPost2010PropOp52
 70
     0
102
RTVSPost2010Prop53
 90
        2
102
RTVSPost2010PropOp53
 70
     1
102
RTVSPost2010Prop54
  1
strokes_ogs.tif
102
RTVSPost2010PropOp54
 70
     1
102
RTVSPost2010Prop55
280
     0
102
RTVSPost2010PropOp55
 70
     1
102
RTVSPost2010Prop56
140
1.0
102
RTVSPost2010PropOp56
 70
     1
102
RTVSPost2010Prop57
140
1.0
102
RTVSPost2010PropOp57
 70
     1
  0
XRECORD
  5
402
102
{ACAD_REACTORS
330
401
102
}
330
401
100
AcDbXrecord
280
     1
102
RTVSPropertyOp0
 70
     1
102
RTVSPropertyOp1
 70
     1
102
RTVSPropertyOp2
 70
     1
102
RTVSPropertyOp3
 70
     1
102
RTVSPropertyOp4
 70
     1
102
RTVSPropertyOp5
 70
     1
102
RTVSPropertyOp6
 70
     1
102
RTVSPropertyOp7
 70
     1
102
RTVSPropertyOp8
 70
     1
102
RTVSPropertyOp9
 70
     1
102
RTVSPropertyOp10
 70
     1
102
RTVSPropertyOp11
 70
     1
102
RTVSPropertyOp12
 70
     1
102
RTVSPropertyOp13
 70
     1
102
RTVSPropertyOp14
 70
     1
102
RTVSPropertyOp15
 70
     1
102
RTVSPropertyOp16
 70
     1
102
RTVSPropertyOp17
 70
     1
102
RTVSPropertyOp18
 70
     1
102
RTVSPropertyOp19
 70
     1
102
RTVSPropertyOp20
 70
     1
102
RTVSPropertyOp21
 70
     1
102
RTVSPropertyOp22
 70
     1
102
RTVSPropertyOp23
 70
     1
102
RTVSPropertyOp24
 70
     1
102
RTVSPropertyOp25
 70
     1
102
RTVSPropertyOp26
 70
     1
102
RTVSPropertyOp27
 70
     1
102
RTVSPropertyOp28
 70
     1
102
RTVSPropertyOp29
 70
     1
102
RTVSPropertyOp30
 70
     1
102
RTVSPropertyOp31
 70
     1
102
RTVSPropertyOp32
 70
     1
102
RTVSPropertyOp33
 70
     1
102
RTVSPropertyOp34
 70
     1
102
RTVSPropertyOp35
 70
     1
102
RTVSPropertyOp36
 70
     1
102
RTVSPropertyOp37
 70
     1
102
RTVSPropertyOp38
 70
     1
102
RTVSPropertyOp39
 70
     1
102
RTVSPropertyOp40
 70
     1
102
RTVSPropertyOp41
 70
     1
102
RTVSPropertyOp42
 70
     1
102
RTVSPropertyOp43
 70
     1
102
RTVSPropertyOp44
 70
     1
102
RTVSPropertyOp45
 70
     1
102
RTVSPropertyOp46
 70
     1
102
RTVSPropertyOp47
 70
     1
102
RTVSPropertyOp48
 70
     1
102
RTVSPropertyOp49
 70
     1
102
RTVSPropertyOp50
 70
     1
102
RTVSPropertyOp51
 70
     0
102
RTVSPropertyOp52
 70
     0
102
RTVSPropertyOp53
 70
     1
102
RTVSPropertyOp54
 70
     1
102
RTVSPropertyOp55
 70
     1
102
RTVSPropertyOp56
 70
     1
102
RTVSPropertyOp57
 70
     1
102
RTVSPost2010Prop28
280
     0
102
RTVSPost2010PropOp28
 70
     1
102
RTVSPost2010Prop29
280
     1
102
RTVSPost2010PropOp29
 70
     1
102
RTVSPost2010Prop30
280
     1
102
RTVSPost2010PropOp30
 70
     1
102
RTVSPost2010Prop31
280
     0
102
RTVSPost2010PropOp31
 70
     1
102
RTVSPost2010Prop32
280
     0
102
RTVSPost2010PropOp32
 70
     1
102
RTVSPost2010Prop33
280
     0
102
RTVSPost2010PropOp33
 70
     1
102
RTVSPost2010Prop34
280
     0
102
RTVSPost2010PropOp34
 70
     1
102
RTVSPost2010Prop35
280
     0
102
RTVSPost2010PropOp35
 70
     1
102
RTVSPost2010Prop36
280
     0
102
RTVSPost2010PropOp36
 70
     1
102
RTVSPost2010Prop37
 90
       50
102
RTVSPost2010PropOp37
 70
     1
102
RTVSPost2010Prop38
140
0.0
102
RTVSPost2010PropOp38
 70
     1
102
RTVSPost2010Prop39
140
1.0
102
RTVSPost2010PropOp39
 70
     1
102
RTVSPost2010Prop40
 90
        0
102
RTVSPost2010PropOp40
 70
     1
102
RTVSPost2010Prop41ColorIndex
 90
       18
102
RTVSPost2010Prop41ColorRGB
 90
        0
102
RTVSPost2010PropOp41
 70
     1
102
RTVSPost2010Prop42
 90
       50
102
RTVSPost2010PropOp42
 70
     1
102
RTVSPost2010Prop43
 90
        3
102
RTVSPost2010PropOp43
 70
     1
102
RTVSPost2010Prop44ColorIndex
 90
        5
102
RTVSPost2010Prop44ColorRGB
 90
      255
102
RTVSPost2010PropOp44
 70
     1
102
RTVSPost2010Prop45
280
     0
102
RTVSPost2010PropOp45
 70
     1
102
RTVSPost2010Prop46
 90
       50
102
RTVSPost2010PropOp46
 70
     1
102
RTVSPost2010Prop47
 90
       50
102
RTVSPost2010PropOp47
 70
     1
102
RTVSPost2010Prop48
 90
       50
102
RTVSPost2010PropOp48
 70
     1
102
RTVSPost2010Prop49
280
     0
102
RTVSPost2010PropOp49
 70
     1
102
RTVSPost2010Prop50
 90
       50
102
RTVSPost2010PropOp50
 70
     1
102
RTVSPost2010Prop51ColorIndex
 90
      256
102
RTVSPost2010Prop51ColorRGB
 90
-16777216
102
RTVSPost2010PropOp51
 70
     0
102
RTVSPost2010Prop52
140
1.0
102
RTVSPost2010PropOp52
 70
     0
102
RTVSPost2010Prop53
 90
        2
102
RTVSPost2010PropOp53
 70
     1
102
RTVSPost2010Prop54
  1
strokes_ogs.tif
102
RTVSPost2010PropOp54
 70
     1
102
RTVSPost2010Prop55
280
     0
102
RTVSPost2010PropOp55
 70
     1
102
RTVSPost2010Prop56
140
1.0
102
RTVSPost2010PropOp56
 70
     1
102
RTVSPost2010Prop57
140
1.0
102
RTVSPost2010PropOp57
 70
     1
  0
XRECORD
  5
3F2
102
{ACAD_REACTORS
330
3F1
102
}
330
3F1
100
AcDbXrecord
280
     1
102
RTVSPropertyOp0
 70
     1
102
RTVSPropertyOp1
 70
     1
102
RTVSPropertyOp2
 70
     1
102
RTVSPropertyOp3
 70
     1
102
RTVSPropertyOp4
 70
     1
102
RTVSPropertyOp5
 70
     1
102
RTVSPropertyOp6
 70
     1
102
RTVSPropertyOp7
 70
     1
102
RTVSPropertyOp8
 70
     1
102
RTVSPropertyOp9
 70
     1
102
RTVSPropertyOp10
 70
     1
102
RTVSPropertyOp11
 70
     1
102
RTVSPropertyOp12
 70
     1
102
RTVSPropertyOp13
 70
     1
102
RTVSPropertyOp14
 70
     1
102
RTVSPropertyOp15
 70
     1
102
RTVSPropertyOp16
 70
     1
102
RTVSPropertyOp17
 70
     1
102
RTVSPropertyOp18
 70
     1
102
RTVSPropertyOp19
 70
     1
102
RTVSPropertyOp20
 70
     1
102
RTVSPropertyOp21
 70
     1
102
RTVSPropertyOp22
 70
     1
102
RTVSPropertyOp23
 70
     1
102
RTVSPropertyOp24
 70
     1
102
RTVSPropertyOp25
 70
     1
102
RTVSPropertyOp26
 70
     1
102
RTVSPropertyOp27
 70
     1
102
RTVSPropertyOp28
 70
     1
102
RTVSPropertyOp29
 70
     1
102
RTVSPropertyOp30
 70
     1
102
RTVSPropertyOp31
 70
     1
102
RTVSPropertyOp32
 70
     1
102
RTVSPropertyOp33
 70
     1
102
RTVSPropertyOp34
 70
     1
102
RTVSPropertyOp35
 70
     1
102
RTVSPropertyOp36
 70
     1
102
RTVSPropertyOp37
 70
     1
102
RTVSPropertyOp38
 70
     1
102
RTVSPropertyOp39
 70
     1
102
RTVSPropertyOp40
 70
     1
102
RTVSPropertyOp41
 70
     1
102
RTVSPropertyOp42
 70
     1
102
RTVSPropertyOp43
 70
     1
102
RTVSPropertyOp44
 70
     1
102
RTVSPropertyOp45
 70
     1
102
RTVSPropertyOp46
 70
     1
102
RTVSPropertyOp47
 70
     1
102
RTVSPropertyOp48
 70
     1
102
RTVSPropertyOp49
 70
     1
102
RTVSPropertyOp50
 70
     1
102
RTVSPropertyOp51
 70
     0
102
RTVSPropertyOp52
 70
     0
102
RTVSPropertyOp53
 70
     1
102
RTVSPropertyOp54
 70
     1
102
RTVSPropertyOp55
 70
     1
102
RTVSPropertyOp56
 70
     1
102
RTVSPropertyOp57
 70
     1
102
RTVSPost2010Prop28
280
     0
102
RTVSPost2010PropOp28
 70
     1
102
RTVSPost2010Prop29
280
     1
102
RTVSPost2010PropOp29
 70
     1
102
RTVSPost2010Prop30
280
     1
102
RTVSPost2010PropOp30
 70
     1
102
RTVSPost2010Prop31
280
     0
102
RTVSPost2010PropOp31
 70
     1
102
RTVSPost2010Prop32
280
     0
102
RTVSPost2010PropOp32
 70
     1
102
RTVSPost2010Prop33
280
     0
102
RTVSPost2010PropOp33
 70
     1
102
RTVSPost2010Prop34
280
     0
102
RTVSPost2010PropOp34
 70
     1
102
RTVSPost2010Prop35
280
     0
102
RTVSPost2010PropOp35
 70
     1
102
RTVSPost2010Prop36
280
     0
102
RTVSPost2010PropOp36
 70
     1
102
RTVSPost2010Prop37
 90
       50
102
RTVSPost2010PropOp37
 70
     1
102
RTVSPost2010Prop38
140
0.0
102
RTVSPost2010PropOp38
 70
     1
102
RTVSPost2010Prop39
140
1.0
102
RTVSPost2010PropOp39
 70
     1
102
RTVSPost2010Prop40
 90
        0
102
RTVSPost2010PropOp40
 70
     1
102
RTVSPost2010Prop41ColorIndex
 90
       18
102
RTVSPost2010Prop41ColorRGB
 90
        0
102
RTVSPost2010PropOp41
 70
     1
102
RTVSPost2010Prop42
 90
       50
102
RTVSPost2010PropOp42
 70
     1
102
RTVSPost2010Prop43
 90
        3
102
RTVSPost2010PropOp43
 70
     1
102
RTVSPost2010Prop44ColorIndex
 90
        5
102
RTVSPost2010Prop44ColorRGB
 90
      255
102
RTVSPost2010PropOp44
 70
     1
102
RTVSPost2010Prop45
280
     0
102
RTVSPost2010PropOp45
 70
     1
102
RTVSPost2010Prop46
 90
       50
102
RTVSPost2010PropOp46
 70
     1
102
RTVSPost2010Prop47
 90
       50
102
RTVSPost2010PropOp47
 70
     1
102
RTVSPost2010Prop48
 90
       50
102
RTVSPost2010PropOp48
 70
     1
102
RTVSPost2010Prop49
280
     0
102
RTVSPost2010PropOp49
 70
     1
102
RTVSPost2010Prop50
 90
       50
102
RTVSPost2010PropOp50
 70
     1
102
RTVSPost2010Prop51ColorIndex
 90
      256
102
RTVSPost2010Prop51ColorRGB
 90
-16777216
102
RTVSPost2010PropOp51
 70
     0
102
RTVSPost2010Prop52
140
1.0
102
RTVSPost2010PropOp52
 70
     0
102
RTVSPost2010Prop53
 90
        2
102
RTVSPost2010PropOp53
 70
     1
102
RTVSPost2010Prop54
  1
strokes_ogs.tif
102
RTVSPost2010PropOp54
 70
     1
102
RTVSPost2010Prop55
280
     0
102
RTVSPost2010PropOp55
 70
     1
102
RTVSPost2010Prop56
140
1.0
102
RTVSPost2010PropOp56
 70
     1
102
RTVSPost2010Prop57
140
1.0
102
RTVSPost2010PropOp57
 70
     1
  0
XRECORD
  5
3E4
102
{ACAD_REACTORS
330
3E3
102
}
330
3E3
100
AcDbXrecord
280
     1
102
RTVSPropertyOp0
 70
     1
102
RTVSPropertyOp1
 70
     1
102
RTVSPropertyOp2
 70
     1
102
RTVSPropertyOp3
 70
     1
102
RTVSPropertyOp4
 70
     1
102
RTVSPropertyOp5
 70
     1
102
RTVSPropertyOp6
 70
     1
102
RTVSPropertyOp7
 70
     1
102
RTVSPropertyOp8
 70
     1
102
RTVSPropertyOp9
 70
     1
102
RTVSPropertyOp10
 70
     1
102
RTVSPropertyOp11
 70
     1
102
RTVSPropertyOp12
 70
     1
102
RTVSPropertyOp13
 70
     1
102
RTVSPropertyOp14
 70
     1
102
RTVSPropertyOp15
 70
     1
102
RTVSPropertyOp16
 70
     1
102
RTVSPropertyOp17
 70
     1
102
RTVSPropertyOp18
 70
     1
102
RTVSPropertyOp19
 70
     1
102
RTVSPropertyOp20
 70
     1
102
RTVSPropertyOp21
 70
     1
102
RTVSPropertyOp22
 70
     1
102
RTVSPropertyOp23
 70
     1
102
RTVSPropertyOp24
 70
     1
102
RTVSPropertyOp25
 70
     1
102
RTVSPropertyOp26
 70
     1
102
RTVSPropertyOp27
 70
     1
102
RTVSPropertyOp28
 70
     1
102
RTVSPropertyOp29
 70
     1
102
RTVSPropertyOp30
 70
     1
102
RTVSPropertyOp31
 70
     1
102
RTVSPropertyOp32
 70
     1
102
RTVSPropertyOp33
 70
     1
102
RTVSPropertyOp34
 70
     1
102
RTVSPropertyOp35
 70
     1
102
RTVSPropertyOp36
 70
     1
102
RTVSPropertyOp37
 70
     1
102
RTVSPropertyOp38
 70
     1
102
RTVSPropertyOp39
 70
     1
102
RTVSPropertyOp40
 70
     1
102
RTVSPropertyOp41
 70
     1
102
RTVSPropertyOp42
 70
     1
102
RTVSPropertyOp43
 70
     1
102
RTVSPropertyOp44
 70
     1
102
RTVSPropertyOp45
 70
     1
102
RTVSPropertyOp46
 70
     1
102
RTVSPropertyOp47
 70
     1
102
RTVSPropertyOp48
 70
     1
102
RTVSPropertyOp49
 70
     1
102
RTVSPropertyOp50
 70
     1
102
RTVSPropertyOp51
 70
     0
102
RTVSPropertyOp52
 70
     0
102
RTVSPropertyOp53
 70
     1
102
RTVSPropertyOp54
 70
     1
102
RTVSPropertyOp55
 70
     1
102
RTVSPropertyOp56
 70
     1
102
RTVSPropertyOp57
 70
     1
102
RTVSPost2010Prop28
280
     0
102
RTVSPost2010PropOp28
 70
     1
102
RTVSPost2010Prop29
280
     1
102
RTVSPost2010PropOp29
 70
     1
102
RTVSPost2010Prop30
280
     1
102
RTVSPost2010PropOp30
 70
     1
102
RTVSPost2010Prop31
280
     0
102
RTVSPost2010PropOp31
 70
     1
102
RTVSPost2010Prop32
280
     0
102
RTVSPost2010PropOp32
 70
     1
102
RTVSPost2010Prop33
280
     0
102
RTVSPost2010PropOp33
 70
     1
102
RTVSPost2010Prop34
280
     0
102
RTVSPost2010PropOp34
 70
     1
102
RTVSPost2010Prop35
280
     0
102
RTVSPost2010PropOp35
 70
     1
102
RTVSPost2010Prop36
280
     0
102
RTVSPost2010PropOp36
 70
     1
102
RTVSPost2010Prop37
 90
       50
102
RTVSPost2010PropOp37
 70
     1
102
RTVSPost2010Prop38
140
0.0
102
RTVSPost2010PropOp38
 70
     1
102
RTVSPost2010Prop39
140
1.0
102
RTVSPost2010PropOp39
 70
     1
102
RTVSPost2010Prop40
 90
        0
102
RTVSPost2010PropOp40
 70
     1
102
RTVSPost2010Prop41ColorIndex
 90
       18
102
RTVSPost2010Prop41ColorRGB
 90
        0
102
RTVSPost2010PropOp41
 70
     1
102
RTVSPost2010Prop42
 90
       50
102
RTVSPost2010PropOp42
 70
     1
102
RTVSPost2010Prop43
 90
        3
102
RTVSPost2010PropOp43
 70
     1
102
RTVSPost2010Prop44ColorIndex
 90
        5
102
RTVSPost2010Prop44ColorRGB
 90
      255
102
RTVSPost2010PropOp44
 70
     1
102
RTVSPost2010Prop45
280
     0
102
RTVSPost2010PropOp45
 70
     1
102
RTVSPost2010Prop46
 90
       50
102
RTVSPost2010PropOp46
 70
     1
102
RTVSPost2010Prop47
 90
       50
102
RTVSPost2010PropOp47
 70
     1
102
RTVSPost2010Prop48
 90
       50
102
RTVSPost2010PropOp48
 70
     1
102
RTVSPost2010Prop49
280
     0
102
RTVSPost2010PropOp49
 70
     1
102
RTVSPost2010Prop50
 90
       50
102
RTVSPost2010PropOp50
 70
     1
102
RTVSPost2010Prop51ColorIndex
 90
      256
102
RTVSPost2010Prop51ColorRGB
 90
-16777216
102
RTVSPost2010PropOp51
 70
     0
102
RTVSPost2010Prop52
140
1.0
102
RTVSPost2010PropOp52
 70
     0
102
RTVSPost2010Prop53
 90
        2
102
RTVSPost2010PropOp53
 70
     1
102
RTVSPost2010Prop54
  1
strokes_ogs.tif
102
RTVSPost2010PropOp54
 70
     1
102
RTVSPost2010Prop55
280
     0
102
RTVSPost2010PropOp55
 70
     1
102
RTVSPost2010Prop56
140
1.0
102
RTVSPost2010PropOp56
 70
     1
102
RTVSPost2010Prop57
140
1.0
102
RTVSPost2010PropOp57
 70
     1
  0
XRECORD
  5
404
102
{ACAD_REACTORS
330
403
102
}
330
403
100
AcDbXrecord
280
     1
102
RTVSPropertyOp0
 70
     1
102
RTVSPropertyOp1
 70
     1
102
RTVSPropertyOp2
 70
     1
102
RTVSPropertyOp3
 70
     1
102
RTVSPropertyOp4
 70
     1
102
RTVSPropertyOp5
 70
     1
102
RTVSPropertyOp6
 70
     1
102
RTVSPropertyOp7
 70
     1
102
RTVSPropertyOp8
 70
     1
102
RTVSPropertyOp9
 70
     1
102
RTVSPropertyOp10
 70
     1
102
RTVSPropertyOp11
 70
     1
102
RTVSPropertyOp12
 70
     1
102
RTVSPropertyOp13
 70
     1
102
RTVSPropertyOp14
 70
     1
102
RTVSPropertyOp15
 70
     1
102
RTVSPropertyOp16
 70
     1
102
RTVSPropertyOp17
 70
     1
102
RTVSPropertyOp18
 70
     1
102
RTVSPropertyOp19
 70
     1
102
RTVSPropertyOp20
 70
     1
102
RTVSPropertyOp21
 70
     1
102
RTVSPropertyOp22
 70
     1
102
RTVSPropertyOp23
 70
     1
102
RTVSPropertyOp24
 70
     1
102
RTVSPropertyOp25
 70
     1
102
RTVSPropertyOp26
 70
     1
102
RTVSPropertyOp27
 70
     1
102
RTVSPropertyOp28
 70
     1
102
RTVSPropertyOp29
 70
     1
102
RTVSPropertyOp30
 70
     1
102
RTVSPropertyOp31
 70
     1
102
RTVSPropertyOp32
 70
     1
102
RTVSPropertyOp33
 70
     1
102
RTVSPropertyOp34
 70
     1
102
RTVSPropertyOp35
 70
     1
102
RTVSPropertyOp36
 70
     1
102
RTVSPropertyOp37
 70
     1
102
RTVSPropertyOp38
 70
     1
102
RTVSPropertyOp39
 70
     1
102
RTVSPropertyOp40
 70
     1
102
RTVSPropertyOp41
 70
     1
102
RTVSPropertyOp42
 70
     1
102
RTVSPropertyOp43
 70
     1
102
RTVSPropertyOp44
 70
     1
102
RTVSPropertyOp45
 70
     1
102
RTVSPropertyOp46
 70
     1
102
RTVSPropertyOp47
 70
     1
102
RTVSPropertyOp48
 70
     1
102
RTVSPropertyOp49
 70
     1
102
RTVSPropertyOp50
 70
     1
102
RTVSPropertyOp51
 70
     0
102
RTVSPropertyOp52
 70
     0
102
RTVSPropertyOp53
 70
     1
102
RTVSPropertyOp54
 70
     1
102
RTVSPropertyOp55
 70
     1
102
RTVSPropertyOp56
 70
     1
102
RTVSPropertyOp57
 70
     1
102
RTVSPost2010Prop28
280
     0
102
RTVSPost2010PropOp28
 70
     1
102
RTVSPost2010Prop29
280
     1
102
RTVSPost2010PropOp29
 70
     1
102
RTVSPost2010Prop30
280
     1
102
RTVSPost2010PropOp30
 70
     1
102
RTVSPost2010Prop31
280
     0
102
RTVSPost2010PropOp31
 70
     1
102
RTVSPost2010Prop32
280
     0
102
RTVSPost2010PropOp32
 70
     1
102
RTVSPost2010Prop33
280
     0
102
RTVSPost2010PropOp33
 70
     1
102
RTVSPost2010Prop34
280
     0
102
RTVSPost2010PropOp34
 70
     1
102
RTVSPost2010Prop35
280
     0
102
RTVSPost2010PropOp35
 70
     1
102
RTVSPost2010Prop36
280
     0
102
RTVSPost2010PropOp36
 70
     1
102
RTVSPost2010Prop37
 90
       50
102
RTVSPost2010PropOp37
 70
     1
102
RTVSPost2010Prop38
140
0.0
102
RTVSPost2010PropOp38
 70
     1
102
RTVSPost2010Prop39
140
1.0
102
RTVSPost2010PropOp39
 70
     1
102
RTVSPost2010Prop40
 90
        0
102
RTVSPost2010PropOp40
 70
     1
102
RTVSPost2010Prop41ColorIndex
 90
       18
102
RTVSPost2010Prop41ColorRGB
 90
        0
102
RTVSPost2010PropOp41
 70
     1
102
RTVSPost2010Prop42
 90
       50
102
RTVSPost2010PropOp42
 70
     1
102
RTVSPost2010Prop43
 90
        3
102
RTVSPost2010PropOp43
 70
     1
102
RTVSPost2010Prop44ColorIndex
 90
        5
102
RTVSPost2010Prop44ColorRGB
 90
      255
102
RTVSPost2010PropOp44
 70
     1
102
RTVSPost2010Prop45
280
     0
102
RTVSPost2010PropOp45
 70
     1
102
RTVSPost2010Prop46
 90
       50
102
RTVSPost2010PropOp46
 70
     1
102
RTVSPost2010Prop47
 90
       50
102
RTVSPost2010PropOp47
 70
     1
102
RTVSPost2010Prop48
 90
       50
102
RTVSPost2010PropOp48
 70
     1
102
RTVSPost2010Prop49
280
     0
102
RTVSPost2010PropOp49
 70
     1
102
RTVSPost2010Prop50
 90
       50
102
RTVSPost2010PropOp50
 70
     1
102
RTVSPost2010Prop51ColorIndex
 90
      256
102
RTVSPost2010Prop51ColorRGB
 90
-16777216
102
RTVSPost2010PropOp51
 70
     0
102
RTVSPost2010Prop52
140
1.0
102
RTVSPost2010PropOp52
 70
     0
102
RTVSPost2010Prop53
 90
        2
102
RTVSPost2010PropOp53
 70
     1
102
RTVSPost2010Prop54
  1
strokes_ogs.tif
102
RTVSPost2010PropOp54
 70
     1
102
RTVSPost2010Prop55
280
     0
102
RTVSPost2010PropOp55
 70
     1
102
RTVSPost2010Prop56
140
1.0
102
RTVSPost2010PropOp56
 70
     1
102
RTVSPost2010Prop57
140
1.0
102
RTVSPost2010PropOp57
 70
     1
  0
ENDSEC
  0
EOF
