  0
SECTION
  2
HEADER
  9
$ACADVER
  1
AC1018
  9
$ACADMAINTVER
 70
     0
  9
$DWGCODEPAGE
  3
ANSI_932
  9
$INSBASE
 10
0.0
 20
0.0
 30
0.0
  9
$EXTMIN
 10
-9297.392654807452
 20
-6752.91245851528
 30
0.0
  9
$EXTMAX
 10
9134.60734519255
 20
6637.787658255348
 30
0.0
  9
$LIMMIN
 10
-2920.0
 20
-2000.0
  9
$LIMMAX
 10
2920.0
 20
2000.0
  9
$ORTHOMODE
 70
     0
  9
$REGENMODE
 70
     1
  9
$FILLMODE
 70
     1
  9
$QTEXTMODE
 70
     0
  9
$MIRRTEXT
 70
     1
  9
$LTSCALE
 40
2.5
  9
$ATTMODE
 70
     1
  9
$TEXTSIZE
 40
0.2
  9
$TRACEWID
 40
0.05
  9
$TEXTSTYLE
  7
Standard
  9
$CLAYER
  8
0
  9
$CELTYPE
  6
ByLayer
  9
$CECOLOR
 62
   256
  9
$CELTSCALE
 40
1.0
  9
$DISPSILH
 70
     0
  9
$DIMSCALE
 40
1.0
  9
$DIMASZ
 40
30.00001907348633
  9
$DIMEXO
 40
1.0
  9
$DIMDLI
 40
10.0
  9
$DIMRND
 40
0.0
  9
$DIMDLE
 40
0.0
  9
$DIMEXE
 40
1.0
  9
$DIMTP
 40
0.0
  9
$DIMTM
 40
0.0
  9
$DIMTXT
 40
35.0
  9
$DIMCEN
 40
0.0
  9
$DIMTSZ
 40
0.0
  9
$DIMTOL
 70
     0
  9
$DIMLIM
 70
     0
  9
$DIMTIH
 70
     0
  9
$DIMTOH
 70
     0
  9
$DIMSE1
 70
     0
  9
$DIMSE2
 70
     0
  9
$DIMTAD
 70
     1
  9
$DIMZIN
 70
     8
  9
$DIMBLK
  1

  9
$DIMASO
 70
     1
  9
$DIMSHO
 70
     1
  9
$DIMPOST
  1

  9
$DIMAPOST
  1

  9
$DIMALT
 70
     0
  9
$DIMALTD
 70
     2
  9
$DIMALTF
 40
0.0393700787401575
  9
$DIMLFAC
 40
1.0
  9
$DIMTOFL
 70
     0
  9
$DIMTVP
 40
0.0
  9
$DIMTIX
 70
     0
  9
$DIMSOXD
 70
     0
  9
$DIMSAH
 70
     0
  9
$DIMBLK1
  1

  9
$DIMBLK2
  1

  9
$DIMSTYLE
  2
Standard
  9
$DIMCLRD
 70
     0
  9
$DIMCLRE
 70
     0
  9
$DIMCLRT
 70
     0
  9
$DIMTFAC
 40
0.65
  9
$DIMGAP
 40
0.09
  9
$DIMJUST
 70
     0
  9
$DIMSD1
 70
     0
  9
$DIMSD2
 70
     0
  9
$DIMTOLJ
 70
     0
  9
$DIMTZIN
 70
     0
  9
$DIMALTZ
 70
     0
  9
$DIMALTTZ
 70
     0
  9
$DIMUPT
 70
     0
  9
$DIMDEC
 70
     1
  9
$DIMTDEC
 70
     1
  9
$DIMALTU
 70
     2
  9
$DIMALTTD
 70
     1
  9
$DIMTXSTY
  7
Standard
  9
$DIMAUNIT
 70
     0
  9
$DIMADEC
 70
     1
  9
$DIMALTRND
 40
0.0
  9
$DIMAZIN
 70
     2
  9
$DIMDSEP
 70
    46
  9
$DIMATFIT
 70
     3
  9
$DIMFRAC
 70
     0
  9
$DIMLDRBLK
  1

  9
$DIMLUNIT
 70
     2
  9
$DIMLWD
 70
    -2
  9
$DIMLWE
 70
    -2
  9
$DIMTMOVE
 70
     0
  9
$LUNITS
 70
     2
  9
$LUPREC
 70
     4
  9
$SKETCHINC
 40
0.1
  9
$FILLETRAD
 40
0.5
  9
$AUNITS
 70
     0
  9
$AUPREC
 70
     0
  9
$MENU
  1
.
  9
$ELEVATION
 40
0.0
  9
$PELEVATION
 40
0.0
  9
$THICKNESS
 40
0.0
  9
$LIMCHECK
 70
     0
  9
$CHAMFERA
 40
0.0
  9
$CHAMFERB
 40
0.0
  9
$CHAMFERC
 40
0.0
  9
$CHAMFERD
 40
0.0
  9
$SKPOLY
 70
     0
  9
$TDCREATE
 40
2459716.646980127
  9
$TDUCREATE
 40
2459716.271980127
  9
$TDUPDATE
 40
2459716.646980416
  9
$TDUUPDATE
 40
2459716.271980416
  9
$TDINDWG
 40
0.0000000116
  9
$TDUSRTIMER
 40
0.0000000116
  9
$USRTIMER
 70
     1
  9
$ANGBASE
 50
0.0
  9
$ANGDIR
 70
     0
  9
$PDMODE
 70
     0
  9
$PDSIZE
 40
1.0
  9
$PLINEWID
 40
0.0
  9
$SPLFRAME
 70
     0
  9
$SPLINETYPE
 70
     6
  9
$SPLINESEGS
 70
     8
  9
$HANDSEED
  5
348
  9
$SURFTAB1
 70
     6
  9
$SURFTAB2
 70
     6
  9
$SURFTYPE
 70
     6
  9
$SURFU
 70
     6
  9
$SURFV
 70
     6
  9
$UCSBASE
  2

  9
$UCSNAME
  2

  9
$UCSORG
 10
0.0
 20
0.0
 30
0.0
  9
$UCSXDIR
 10
1.0
 20
0.0
 30
0.0
  9
$UCSYDIR
 10
0.0
 20
1.0
 30
0.0
  9
$UCSORTHOREF
  2

  9
$UCSORTHOVIEW
 70
     0
  9
$UCSORGTOP
 10
0.0
 20
0.0
 30
0.0
  9
$UCSORGBOTTOM
 10
0.0
 20
0.0
 30
0.0
  9
$UCSORGLEFT
 10
0.0
 20
0.0
 30
0.0
  9
$UCSORGRIGHT
 10
0.0
 20
0.0
 30
0.0
  9
$UCSORGFRONT
 10
0.0
 20
0.0
 30
0.0
  9
$UCSORGBACK
 10
0.0
 20
0.0
 30
0.0
  9
$PUCSBASE
  2

  9
$PUCSNAME
  2

  9
$PUCSORG
 10
0.0
 20
0.0
 30
0.0
  9
$PUCSXDIR
 10
1.0
 20
0.0
 30
0.0
  9
$PUCSYDIR
 10
0.0
 20
1.0
 30
0.0
  9
$PUCSORTHOREF
  2

  9
$PUCSORTHOVIEW
 70
     0
  9
$PUCSORGTOP
 10
0.0
 20
0.0
 30
0.0
  9
$PUCSORGBOTTOM
 10
0.0
 20
0.0
 30
0.0
  9
$PUCSORGLEFT
 10
0.0
 20
0.0
 30
0.0
  9
$PUCSORGRIGHT
 10
0.0
 20
0.0
 30
0.0
  9
$PUCSORGFRONT
 10
0.0
 20
0.0
 30
0.0
  9
$PUCSORGBACK
 10
0.0
 20
0.0
 30
0.0
  9
$USERI1
 70
     0
  9
$USERI2
 70
     0
  9
$USERI3
 70
     0
  9
$USERI4
 70
     0
  9
$USERI5
 70
     0
  9
$USERR1
 40
0.0
  9
$USERR2
 40
0.0
  9
$USERR3
 40
0.0
  9
$USERR4
 40
0.0
  9
$USERR5
 40
0.0
  9
$WORLDVIEW
 70
     1
  9
$SHADEDGE
 70
     3
  9
$SHADEDIF
 70
    70
  9
$TILEMODE
 70
     1
  9
$MAXACTVP
 70
    64
  9
$PINSBASE
 10
0.0
 20
0.0
 30
0.0
  9
$PLIMCHECK
 70
     0
  9
$PEXTMIN
 10
1.000000000000000E+20
 20
1.000000000000000E+20
 30
1.000000000000000E+20
  9
$PEXTMAX
 10
-1.000000000000000E+20
 20
-1.000000000000000E+20
 30
-1.000000000000000E+20
  9
$PLIMMIN
 10
0.0
 20
0.0
  9
$PLIMMAX
 10
12.0
 20
9.0
  9
$UNITMODE
 70
     0
  9
$VISRETAIN
 70
     0
  9
$PLINEGEN
 70
     1
  9
$PSLTSCALE
 70
     0
  9
$TREEDEPTH
 70
  3020
  9
$CMLSTYLE
  2
Standard
  9
$CMLJUST
 70
     0
  9
$CMLSCALE
 40
1.0
  9
$PROXYGRAPHICS
 70
     0
  9
$MEASUREMENT
 70
     1
  9
$CELWEIGHT
370
    -1
  9
$ENDCAPS
280
     0
  9
$JOINSTYLE
280
     0
  9
$LWDISPLAY
290
     1
  9
$INSUNITS
 70
     4
  9
$HYPERLINKBASE
  1

  9
$STYLESHEET
  1

  9
$XEDIT
290
     1
  9
$CEPSNTYPE
380
     0
  9
$PSTYLEMODE
290
     1
  9
$FINGERPRINTGUID
  2
{5a961dc4-e5b6-4b21-9e2e-4254de6c3dc9}
  9
$VERSIONGUID
  2
{FAEB1C32-E019-11D5-929B-00C0DF256EC4}
  9
$EXTNAMES
290
     1
  9
$PSVPSCALE
 40
0.0
  9
$OLESTARTUP
290
     0
  9
$SORTENTS
280
   127
  9
$INDEXCTL
280
     0
  9
$HIDETEXT
280
     1
  9
$XCLIPFRAME
290
     0
  9
$HALOGAP
280
     0
  9
$OBSCOLOR
 70
   257
  9
$OBSLTYPE
280
     0
  9
$INTERSECTIONDISPLAY
280
     0
  9
$INTERSECTIONCOLOR
 70
   257
  9
$DIMASSOC
280
     2
  9
$PROJECTNAME
  1

  0
ENDSEC
  0
SECTION
  2
CLASSES
  0
CLASS
  1
ACDBDICTIONARYWDFLT
  2
AcDbDictionaryWithDefault
  3
ObjectDBX Classes
 90
        0
 91
        3
280
     0
281
     0
  0
CLASS
  1
VISUALSTYLE
  2
AcDbVisualStyle
  3
ObjectDBX Classes
 90
     4095
 91
        3
280
     0
281
     0
  0
CLASS
  1
MATERIAL
  2
AcDbMaterial
  3
ObjectDBX Classes
 90
     1153
 91
        3
280
     0
281
     0
  0
CLASS
  1
SCALE
  2
AcDbScale
  3
ObjectDBX Classes
 90
     1153
 91
        3
280
     0
281
     0
  0
CLASS
  1
TABLESTYLE
  2
AcDbTableStyle
  3
ObjectDBX Classes
 90
     4095
 91
        3
280
     0
281
     0
  0
CLASS
  1
MLEADERSTYLE
  2
AcDbMLeaderStyle
  3
ACDB_MLEADERSTYLE_CLASS
 90
     4095
 91
        3
280
     0
281
     0
  0
CLASS
  1
SUN
  2
AcDbSun
  3
SCENEOE
 90
     1153
 91
        3
280
     0
281
     0
  0
CLASS
  1
DICTIONARYVAR
  2
AcDbDictionaryVar
  3
ObjectDBX Classes
 90
        0
 91
        3
280
     0
281
     0
  0
CLASS
  1
CELLSTYLEMAP
  2
AcDbCellStyleMap
  3
ObjectDBX Classes
 90
     1152
 91
        3
280
     0
281
     0
  0
ENDSEC
  0
SECTION
  2
TABLES
  0
TABLE
  2
VPORT
  5
8
102
{ACAD_XDICTIONARY
360
301
102
}
330
0
100
AcDbSymbolTable
 70
     1
  0
VPORT
  5
29
330
8
100
AcDbSymbolTableRecord
100
AcDbViewportTableRecord
  2
*Active
 70
     0
 10
0.0
 20
0.0
 11
1.0
 21
1.0
 12
-81.39265480745132
 22
-57.56240012996614
 13
0.0
 23
0.0
 14
0.5
 24
0.5
 15
0.5
 25
0.5
 16
0.0
 26
0.0
 36
1.0
 17
0.0
 27
0.0
 37
0.0
 40
4552.838039702014
 41
1.376477692672365
 42
50.0
 43
0.0
 44
0.0
 50
0.0
 51
0.0
 71
     0
 72
  1000
 73
     1
 74
     1
 75
     0
 76
     0
 77
     0
 78
     0
281
     0
 65
     1
110
0.0
120
0.0
130
0.0
111
1.0
121
0.0
131
0.0
112
0.0
122
1.0
132
0.0
 79
     0
146
0.0
  0
ENDTAB
  0
TABLE
  2
LTYPE
  5
5
330
0
100
AcDbSymbolTable
 70
    67
  0
LTYPE
  5
14
330
5
100
AcDbSymbolTableRecord
100
AcDbLinetypeTableRecord
  2
ByBlock
 70
     0
  3

 72
    65
 73
     0
 40
0.0
  0
LTYPE
  5
15
330
5
100
AcDbSymbolTableRecord
100
AcDbLinetypeTableRecord
  2
ByLayer
 70
     0
  3

 72
    65
 73
     0
 40
0.0
  0
LTYPE
  5
16
330
5
100
AcDbSymbolTableRecord
100
AcDbLinetypeTableRecord
  2
Continuous
 70
     0
  3
Solid line
 72
    65
 73
     0
 40
0.0
  0
LTYPE
  5
6F
330
5
100
AcDbSymbolTableRecord
100
AcDbLinetypeTableRecord
  2
HIDDENX2
 70
     0
  3
Hidden (2x) ____ ____ ____ ____ ____ ____ ____ 
 72
    65
 73
     2
 40
19.05
 49
12.7
 74
     0
 49
-6.35
 74
     0
  0
LTYPE
  5
70
330
5
100
AcDbSymbolTableRecord
100
AcDbLinetypeTableRecord
  2
HIDDEN
 70
     0
  3
Hidden __ __ __ __ __ __ __ __ __ __ __ __ __ __
 72
    65
 73
     2
 40
9.524999999999999
 49
6.35
 74
     0
 49
-3.175
 74
     0
  0
LTYPE
  5
71
330
5
100
AcDbSymbolTableRecord
100
AcDbLinetypeTableRecord
  2
HIDDEN2
 70
     0
  3
Hidden (.5x) _ _ _ _ _ _ _ _ _ _ _ _ _ _ _ _ _ 
 72
    65
 73
     2
 40
4.762499999999999
 49
3.175
 74
     0
 49
-1.5875
 74
     0
  0
LTYPE
  5
72
330
5
100
AcDbSymbolTableRecord
100
AcDbLinetypeTableRecord
  2
DASHED
 70
     0
  3
Dashed __ __ __ __ __ __ __ __ __ __ __ __ __ _
 72
    65
 73
     2
 40
19.05
 49
12.7
 74
     0
 49
-6.35
 74
     0
  0
LTYPE
  5
73
330
5
100
AcDbSymbolTableRecord
100
AcDbLinetypeTableRecord
  2
DASHED2
 70
     0
  3
Dashed (.5x) _ _ _ _ _ _ _ _ _ _ _ _ _ _ _ _ _ 
 72
    65
 73
     2
 40
9.524999999999999
 49
6.35
 74
     0
 49
-3.175
 74
     0
  0
LTYPE
  5
74
330
5
100
AcDbSymbolTableRecord
100
AcDbLinetypeTableRecord
  2
DASHEDX2
 70
     0
  3
Dashed (2x) ____  ____  ____  ____  ____  ___
 72
    65
 73
     2
 40
38.09999999999999
 49
25.4
 74
     0
 49
-12.7
 74
     0
  0
LTYPE
  5
75
330
5
100
AcDbSymbolTableRecord
100
AcDbLinetypeTableRecord
  2
DOTX2
 70
     0
  3
Dot (2x) .  .  .  .  .  .  .  .  .  .  .  .  .  .
 72
    65
 73
     2
 40
12.7
 49
0.0
 74
     0
 49
-12.7
 74
     0
  0
LTYPE
  5
76
330
5
100
AcDbSymbolTableRecord
100
AcDbLinetypeTableRecord
  2
DOT
 70
     0
  3
Dot . . . . . . . . . . . . . . . . . . . . . . . .
 72
    65
 73
     2
 40
6.35
 49
0.0
 74
     0
 49
-6.35
 74
     0
  0
LTYPE
  5
77
330
5
100
AcDbSymbolTableRecord
100
AcDbLinetypeTableRecord
  2
DOT2
 70
     0
  3
Dot (.5x) ........................................
 72
    65
 73
     2
 40
3.175
 49
0.0
 74
     0
 49
-3.175
 74
     0
  0
LTYPE
  5
78
330
5
100
AcDbSymbolTableRecord
100
AcDbLinetypeTableRecord
  2
CENTERX2
 70
     0
  3
Center (2x) ________  __  ________  __  _____
 72
    65
 73
     4
 40
101.6
 49
63.5
 74
     0
 49
-12.7
 74
     0
 49
12.7
 74
     0
 49
-12.7
 74
     0
  0
LTYPE
  5
79
330
5
100
AcDbSymbolTableRecord
100
AcDbLinetypeTableRecord
  2
CENTER
 70
     0
  3
Center ____ _ ____ _ ____ _ ____ _ ____ _ ____
 72
    65
 73
     4
 40
50.8
 49
31.75
 74
     0
 49
-6.35
 74
     0
 49
6.35
 74
     0
 49
-6.35
 74
     0
  0
LTYPE
  5
7A
330
5
100
AcDbSymbolTableRecord
100
AcDbLinetypeTableRecord
  2
CENTER2
 70
     0
  3
Center (.5x) ___ _ ___ _ ___ _ ___ _ ___ _ ___
 72
    65
 73
     4
 40
28.575
 49
19.05
 74
     0
 49
-3.175
 74
     0
 49
3.175
 74
     0
 49
-3.175
 74
     0
  0
LTYPE
  5
7B
330
5
100
AcDbSymbolTableRecord
100
AcDbLinetypeTableRecord
  2
DASHDOTX2
 70
     0
  3
Dash dot (2x) ____  .  ____  .  ____  .  ___
 72
    65
 73
     4
 40
50.8
 49
25.4
 74
     0
 49
-12.7
 74
     0
 49
0.0
 74
     0
 49
-12.7
 74
     0
  0
LTYPE
  5
7C
330
5
100
AcDbSymbolTableRecord
100
AcDbLinetypeTableRecord
  2
DASHDOT
 70
     0
  3
Dash dot __ . __ . __ . __ . __ . __ . __ . __
 72
    65
 73
     4
 40
25.4
 49
12.7
 74
     0
 49
-6.35
 74
     0
 49
0.0
 74
     0
 49
-6.35
 74
     0
  0
LTYPE
  5
7D
330
5
100
AcDbSymbolTableRecord
100
AcDbLinetypeTableRecord
  2
DASHDOT2
 70
     0
  3
Dash dot (.5x) _._._._._._._._._._._._._._._.
 72
    65
 73
     4
 40
12.7
 49
6.35
 74
     0
 49
-3.175
 74
     0
 49
0.0
 74
     0
 49
-3.175
 74
     0
  0
LTYPE
  5
7E
330
5
100
AcDbSymbolTableRecord
100
AcDbLinetypeTableRecord
  2
DIVIDEX2
 70
     0
  3
Divide (2x) ________  .  .  ________  .  .  _
 72
    65
 73
     6
 40
63.5
 49
25.4
 74
     0
 49
-12.7
 74
     0
 49
0.0
 74
     0
 49
-12.7
 74
     0
 49
0.0
 74
     0
 49
-12.7
 74
     0
  0
LTYPE
  5
7F
330
5
100
AcDbSymbolTableRecord
100
AcDbLinetypeTableRecord
  2
DIVIDE
 70
     0
  3
Divide ____ . . ____ . . ____ . . ____ . . ____
 72
    65
 73
     6
 40
31.75
 49
12.7
 74
     0
 49
-6.35
 74
     0
 49
0.0
 74
     0
 49
-6.35
 74
     0
 49
0.0
 74
     0
 49
-6.35
 74
     0
  0
LTYPE
  5
80
330
5
100
AcDbSymbolTableRecord
100
AcDbLinetypeTableRecord
  2
DIVIDE2
 70
     0
  3
Divide (.5x) __..__..__..__..__..__..__..__.._
 72
    65
 73
     6
 40
15.875
 49
6.35
 74
     0
 49
-3.175
 74
     0
 49
0.0
 74
     0
 49
-3.175
 74
     0
 49
0.0
 74
     0
 49
-3.175
 74
     0
  0
LTYPE
  5
81
330
5
100
AcDbSymbolTableRecord
100
AcDbLinetypeTableRecord
  2
BORDERX2
 70
     0
  3
Border (2x) ____  ____  .  ____  ____  .  ___
 72
    65
 73
     6
 40
88.89999999999999
 49
25.4
 74
     0
 49
-12.7
 74
     0
 49
25.4
 74
     0
 49
-12.7
 74
     0
 49
0.0
 74
     0
 49
-12.7
 74
     0
  0
LTYPE
  5
82
330
5
100
AcDbSymbolTableRecord
100
AcDbLinetypeTableRecord
  2
BORDER
 70
     0
  3
Border __ __ . __ __ . __ __ . __ __ . __ __ .
 72
    65
 73
     6
 40
44.45
 49
12.7
 74
     0
 49
-6.35
 74
     0
 49
12.7
 74
     0
 49
-6.35
 74
     0
 49
0.0
 74
     0
 49
-6.35
 74
     0
  0
LTYPE
  5
83
330
5
100
AcDbSymbolTableRecord
100
AcDbLinetypeTableRecord
  2
BORDER2
 70
     0
  3
Border (.5x) __.__.__.__.__.__.__.__.__.__.__.
 72
    65
 73
     6
 40
22.225
 49
6.35
 74
     0
 49
-3.175
 74
     0
 49
6.35
 74
     0
 49
-3.175
 74
     0
 49
0.0
 74
     0
 49
-3.175
 74
     0
  0
LTYPE
  5
84
330
5
100
AcDbSymbolTableRecord
100
AcDbLinetypeTableRecord
  2
PHANTOMX2
 70
     0
  3
Phantom (2x) ____________    ____    ____   _
 72
    65
 73
     6
 40
127.0
 49
63.5
 74
     0
 49
-12.7
 74
     0
 49
12.7
 74
     0
 49
-12.7
 74
     0
 49
12.7
 74
     0
 49
-12.7
 74
     0
  0
LTYPE
  5
85
330
5
100
AcDbSymbolTableRecord
100
AcDbLinetypeTableRecord
  2
PHANTOM
 70
     0
  3
Phantom ______  __  __  ______  __  __  ______ 
 72
    65
 73
     6
 40
63.5
 49
31.75
 74
     0
 49
-6.35
 74
     0
 49
6.35
 74
     0
 49
-6.35
 74
     0
 49
6.35
 74
     0
 49
-6.35
 74
     0
  0
LTYPE
  5
86
330
5
100
AcDbSymbolTableRecord
100
AcDbLinetypeTableRecord
  2
PHANTOM2
 70
     0
  3
Phantom (.5x) ___ _ _ ___ _ _ ___ _ _ ___ _ _
 72
    65
 73
     6
 40
31.75
 49
15.875
 74
     0
 49
-3.175
 74
     0
 49
3.175
 74
     0
 49
-3.175
 74
     0
 49
3.175
 74
     0
 49
-3.175
 74
     0
  0
LTYPE
  5
87
330
5
100
AcDbSymbolTableRecord
100
AcDbLinetypeTableRecord
  2
ACAD_ISO06W100
 70
     0
  3
ISO long-dash triple-dot ____ ... ____ ... ____
 72
    65
 73
     8
 40
36.0
 49
24.0
 74
     0
 49
-3.0
 74
     0
 49
0.0
 74
     0
 49
-3.0
 74
     0
 49
0.0
 74
     0
 49
-3.0
 74
     0
 49
0.0
 74
     0
 49
-3.0
 74
     0
  0
LTYPE
  5
88
330
5
100
AcDbSymbolTableRecord
100
AcDbLinetypeTableRecord
  2
ACAD_ISO13W100
 70
     0
  3
ISO double-dash double-dot __ __ . . __ __ . . _
 72
    65
 73
     8
 40
36.0
 49
12.0
 74
     0
 49
-3.0
 74
     0
 49
12.0
 74
     0
 49
-3.0
 74
     0
 49
0.0
 74
     0
 49
-3.0
 74
     0
 49
0.0
 74
     0
 49
-3.0
 74
     0
  0
LTYPE
  5
89
330
5
100
AcDbSymbolTableRecord
100
AcDbLinetypeTableRecord
  2
ACAD_ISO14W100
 70
     0
  3
ISO dash triple-dot __ . . . __ . . . __ . . . _
 72
    65
 73
     8
 40
24.0
 49
12.0
 74
     0
 49
-3.0
 74
     0
 49
0.0
 74
     0
 49
-3.0
 74
     0
 49
0.0
 74
     0
 49
-3.0
 74
     0
 49
0.0
 74
     0
 49
-3.0
 74
     0
  0
LTYPE
  5
8A
330
5
100
AcDbSymbolTableRecord
100
AcDbLinetypeTableRecord
  2
ACAD_ISO02W100
 70
     0
  3
ISO dash __ __ __ __ __ __ __ __ __ __ __ __ __
 72
    65
 73
     2
 40
15.0
 49
12.0
 74
     0
 49
-3.0
 74
     0
  0
LTYPE
  5
8B
330
5
100
AcDbSymbolTableRecord
100
AcDbLinetypeTableRecord
  2
ACAD_ISO03W100
 70
     0
  3
ISO dash space __    __    __    __    __    __
 72
    65
 73
     2
 40
30.0
 49
12.0
 74
     0
 49
-18.0
 74
     0
  0
LTYPE
  5
8C
330
5
100
AcDbSymbolTableRecord
100
AcDbLinetypeTableRecord
  2
ACAD_ISO04W100
 70
     0
  3
ISO long-dash dot ____ . ____ . ____ . ____ . _
 72
    65
 73
     4
 40
30.0
 49
24.0
 74
     0
 49
-3.0
 74
     0
 49
0.0
 74
     0
 49
-3.0
 74
     0
  0
LTYPE
  5
8D
330
5
100
AcDbSymbolTableRecord
100
AcDbLinetypeTableRecord
  2
ACAD_ISO05W100
 70
     0
  3
ISO long-dash double-dot ____ .. ____ .. ____ . 
 72
    65
 73
     6
 40
33.0
 49
24.0
 74
     0
 49
-3.0
 74
     0
 49
0.0
 74
     0
 49
-3.0
 74
     0
 49
0.0
 74
     0
 49
-3.0
 74
     0
  0
LTYPE
  5
8E
330
5
100
AcDbSymbolTableRecord
100
AcDbLinetypeTableRecord
  2
ACAD_ISO07W100
 70
     0
  3
ISO dot . . . . . . . . . . . . . . . . . . . . 
 72
    65
 73
     2
 40
3.0
 49
0.0
 74
     0
 49
-3.0
 74
     0
  0
LTYPE
  5
8F
330
5
100
AcDbSymbolTableRecord
100
AcDbLinetypeTableRecord
  2
ACAD_ISO08W100
 70
     0
  3
ISO long-dash short-dash ____ __ ____ __ ____ _
 72
    65
 73
     4
 40
36.0
 49
24.0
 74
     0
 49
-3.0
 74
     0
 49
6.0
 74
     0
 49
-3.0
 74
     0
  0
LTYPE
  5
90
330
5
100
AcDbSymbolTableRecord
100
AcDbLinetypeTableRecord
  2
ACAD_ISO09W100
 70
     0
  3
ISO long-dash double-short-dash ____ __ __ ____
 72
    65
 73
     6
 40
45.0
 49
24.0
 74
     0
 49
-3.0
 74
     0
 49
6.0
 74
     0
 49
-3.0
 74
     0
 49
6.0
 74
     0
 49
-3.0
 74
     0
  0
LTYPE
  5
91
330
5
100
AcDbSymbolTableRecord
100
AcDbLinetypeTableRecord
  2
ACAD_ISO10W100
 70
     0
  3
ISO dash dot __ . __ . __ . __ . __ . __ . __ . 
 72
    65
 73
     4
 40
18.0
 49
12.0
 74
     0
 49
-3.0
 74
     0
 49
0.0
 74
     0
 49
-3.0
 74
     0
  0
LTYPE
  5
92
330
5
100
AcDbSymbolTableRecord
100
AcDbLinetypeTableRecord
  2
ACAD_ISO11W100
 70
     0
  3
ISO double-dash dot __ __ . __ __ . __ __ . __ _
 72
    65
 73
     6
 40
33.0
 49
12.0
 74
     0
 49
-3.0
 74
     0
 49
12.0
 74
     0
 49
-3.0
 74
     0
 49
0.0
 74
     0
 49
-3.0
 74
     0
  0
LTYPE
  5
93
330
5
100
AcDbSymbolTableRecord
100
AcDbLinetypeTableRecord
  2
ACAD_ISO12W100
 70
     0
  3
ISO dash double-dot __ . . __ . . __ . . __ . . 
 72
    65
 73
     6
 40
21.0
 49
12.0
 74
     0
 49
-3.0
 74
     0
 49
0.0
 74
     0
 49
-3.0
 74
     0
 49
0.0
 74
     0
 49
-3.0
 74
     0
  0
LTYPE
  5
94
330
5
100
AcDbSymbolTableRecord
100
AcDbLinetypeTableRecord
  2
ACAD_ISO15W100
 70
     0
  3
ISO double-dash triple-dot __ __ . . . __ __ . .
 72
    65
 73
    10
 40
39.0
 49
12.0
 74
     0
 49
-3.0
 74
     0
 49
12.0
 74
     0
 49
-3.0
 74
     0
 49
0.0
 74
     0
 49
-3.0
 74
     0
 49
0.0
 74
     0
 49
-3.0
 74
     0
 49
0.0
 74
     0
 49
-3.0
 74
     0
  0
LTYPE
  5
95
330
5
100
AcDbSymbolTableRecord
100
AcDbLinetypeTableRecord
  2
JIS_02_0.7
 70
     0
  3
HIDDEN0.75 _ _ _ _ _ _ _ _ _ _ _ _ _ _ _ _ _ 
 72
    65
 73
     2
 40
1.35
 49
0.75
 74
     0
 49
-0.6
 74
     0
  0
LTYPE
  5
96
330
5
100
AcDbSymbolTableRecord
100
AcDbLinetypeTableRecord
  2
JIS_02_1.0
 70
     0
  3
HIDDEN01 _ _ _ _ _ _ _ _ _ _ _ _ _ _ _ _ _ 
 72
    65
 73
     2
 40
2.0
 49
1.0
 74
     0
 49
-1.0
 74
     0
  0
LTYPE
  5
97
330
5
100
AcDbSymbolTableRecord
100
AcDbLinetypeTableRecord
  2
JIS_02_1.2
 70
     0
  3
HIDDEN01.25  _ _ _ _ _ _ _ _ _ _ _ _ _ _ _ _ _ 
 72
    65
 73
     2
 40
2.5
 49
1.25
 74
     0
 49
-1.25
 74
     0
  0
LTYPE
  5
98
330
5
100
AcDbSymbolTableRecord
100
AcDbLinetypeTableRecord
  2
JIS_02_2.0
 70
     0
  3
HIDDEN02 __ __ __ __ __ __ __ __ __ __ __ 
 72
    65
 73
     2
 40
3.0
 49
2.0
 74
     0
 49
-1.0
 74
     0
  0
LTYPE
  5
99
330
5
100
AcDbSymbolTableRecord
100
AcDbLinetypeTableRecord
  2
JIS_02_4.0
 70
     0
  3
HIDDEN04 ____ ____ ____ ____ ____ ____ ____ 
 72
    65
 73
     2
 40
5.5
 49
4.0
 74
     0
 49
-1.5
 74
     0
  0
LTYPE
  5
9A
330
5
100
AcDbSymbolTableRecord
100
AcDbLinetypeTableRecord
  2
JIS_08_11
 70
     0
  3
1SASEN11 ___ _ ___ _ ___ _ ___ _ ___ _ ___
 72
    65
 73
     4
 40
12.8
 49
11.0
 74
     0
 49
-0.6
 74
     0
 49
0.6
 74
     0
 49
-0.6
 74
     0
  0
LTYPE
  5
9B
330
5
100
AcDbSymbolTableRecord
100
AcDbLinetypeTableRecord
  2
JIS_08_15
 70
     0
  3
1SASEN15 ____ _ ____ _ ____ _ ____ _ ____ 
 72
    65
 73
     4
 40
17.25
 49
15.0
 74
     0
 49
-0.75
 74
     0
 49
0.75
 74
     0
 49
-0.75
 74
     0
  0
LTYPE
  5
9C
330
5
100
AcDbSymbolTableRecord
100
AcDbLinetypeTableRecord
  2
JIS_08_25
 70
     0
  3
1SASEN25 ________  __  ________  __  _____
 72
    65
 73
     4
 40
28.0
 49
25.0
 74
     0
 49
-1.125
 74
     0
 49
0.75
 74
     0
 49
-1.125
 74
     0
  0
LTYPE
  5
9D
330
5
100
AcDbSymbolTableRecord
100
AcDbLinetypeTableRecord
  2
JIS_08_37
 70
     0
  3
1SASEN37 ________  __  ________  __  _____
 72
    65
 73
     4
 40
40.5
 49
37.5
 74
     0
 49
-1.125
 74
     0
 49
0.75
 74
     0
 49
-1.125
 74
     0
  0
LTYPE
  5
9E
330
5
100
AcDbSymbolTableRecord
100
AcDbLinetypeTableRecord
  2
JIS_08_50
 70
     0
  3
1SASEN50 _______________  __  ____________
 72
    65
 73
     4
 40
53.0
 49
50.0
 74
     0
 49
-1.125
 74
     0
 49
0.75
 74
     0
 49
-1.125
 74
     0
  0
LTYPE
  5
9F
330
5
100
AcDbSymbolTableRecord
100
AcDbLinetypeTableRecord
  2
JIS_09_08
 70
     0
  3
2SASEN8 __ _ _ __ _ _ __ _ _ __ _ _ __ _ _ 
 72
    65
 73
     6
 40
10.75
 49
8.0
 74
     0
 49
-0.55
 74
     0
 49
0.55
 74
     0
 49
-0.55
 74
     0
 49
0.55
 74
     0
 49
-0.55
 74
     0
  0
LTYPE
  5
A0
330
5
100
AcDbSymbolTableRecord
100
AcDbLinetypeTableRecord
  2
JIS_09_15
 70
     0
  3
2SASEN15 ___ _ _ ___ _ _ ___ _ _ ___ _ _ ___ 
 72
    65
 73
     6
 40
18.9
 49
15.0
 74
     0
 49
-0.9
 74
     0
 49
0.6
 74
     0
 49
-0.9
 74
     0
 49
0.6
 74
     0
 49
-0.9
 74
     0
  0
LTYPE
  5
A1
330
5
100
AcDbSymbolTableRecord
100
AcDbLinetypeTableRecord
  2
JIS_09_29
 70
     0
  3
2SASEN29 ______　__  __  ______　__  __  ___
 72
    65
 73
     6
 40
34.0
 49
29.0
 74
     0
 49
-1.2
 74
     0
 49
0.7
 74
     0
 49
-1.2
 74
     0
 49
0.7
 74
     0
 49
-1.2
 74
     0
  0
LTYPE
  5
A2
330
5
100
AcDbSymbolTableRecord
100
AcDbLinetypeTableRecord
  2
JIS_09_50
 70
     0
  3
2SASEN50 ____________　__  __  _____________
 72
    65
 73
     6
 40
55.0
 49
50.0
 74
     0
 49
-1.2
 74
     0
 49
0.7
 74
     0
 49
-1.2
 74
     0
 49
0.7
 74
     0
 49
-1.2
 74
     0
  0
LTYPE
  5
A3
330
5
100
AcDbSymbolTableRecord
100
AcDbLinetypeTableRecord
  2
SXF_破線
 70
     0
  3
02 dashed -- -- -- -- -- --
 72
    65
 73
     2
 40
7.5
 49
6.0
 74
     0
 49
-1.5
 74
     0
  0
LTYPE
  5
A4
330
5
100
AcDbSymbolTableRecord
100
AcDbLinetypeTableRecord
  2
SXF_跳び破線
 70
     0
  3
03 dashed_spaced --  --  --  --
 72
    65
 73
     2
 40
12.0
 49
6.0
 74
     0
 49
-6.0
 74
     0
  0
LTYPE
  5
A5
330
5
100
AcDbSymbolTableRecord
100
AcDbLinetypeTableRecord
  2
SXF_一点長鎖線
 70
     0
  3
04 long_dashed_dotted ---- . ---- . ----
 72
    65
 73
     4
 40
15.25
 49
12.0
 74
     0
 49
-1.5
 74
     0
 49
0.25
 74
     0
 49
-1.5
 74
     0
  0
LTYPE
  5
A6
330
5
100
AcDbSymbolTableRecord
100
AcDbLinetypeTableRecord
  2
SXF_二点長鎖線
 70
     0
  3
05 long_dashed_double-dotted ---- . . ---- 
 72
    65
 73
     6
 40
17.0
 49
12.0
 74
     0
 49
-1.5
 74
     0
 49
0.25
 74
     0
 49
-1.5
 74
     0
 49
0.25
 74
     0
 49
-1.5
 74
     0
  0
LTYPE
  5
A7
330
5
100
AcDbSymbolTableRecord
100
AcDbLinetypeTableRecord
  2
SXF_三点長鎖線
 70
     0
  3
06 long_dashed_triplicate-dotted ---- ... ---- 
 72
    65
 73
     8
 40
18.75
 49
12.0
 74
     0
 49
-1.5
 74
     0
 49
0.25
 74
     0
 49
-1.5
 74
     0
 49
0.25
 74
     0
 49
-1.5
 74
     0
 49
0.25
 74
     0
 49
-1.5
 74
     0
  0
LTYPE
  5
A8
330
5
100
AcDbSymbolTableRecord
100
AcDbLinetypeTableRecord
  2
SXF_点線
 70
     0
  3
07 dotted . . . . . . . . . . . . 
 72
    65
 73
     2
 40
1.75
 49
0.25
 74
     0
 49
-1.5
 74
     0
  0
LTYPE
  5
A9
330
5
100
AcDbSymbolTableRecord
100
AcDbLinetypeTableRecord
  2
SXF_一点鎖線
 70
     0
  3
08 chain ---- - --- - --- - ---
 72
    65
 73
     4
 40
18.5
 49
12.0
 74
     0
 49
-1.5
 74
     0
 49
3.5
 74
     0
 49
-1.5
 74
     0
  0
LTYPE
  5
AA
330
5
100
AcDbSymbolTableRecord
100
AcDbLinetypeTableRecord
  2
SXF_二点鎖線
 70
     0
  3
09 chain_double_dash ---- - - ---- - - ----
 72
    65
 73
     6
 40
23.5
 49
12.0
 74
     0
 49
-1.5
 74
     0
 49
3.5
 74
     0
 49
-1.5
 74
     0
 49
3.5
 74
     0
 49
-1.5
 74
     0
  0
LTYPE
  5
AB
330
5
100
AcDbSymbolTableRecord
100
AcDbLinetypeTableRecord
  2
SXF_一点短鎖線
 70
     0
  3
10 dashed_dotted -- . -- . -- . --
 72
    65
 73
     4
 40
9.25
 49
6.0
 74
     0
 49
-1.5
 74
     0
 49
0.25
 74
     0
 49
-1.5
 74
     0
  0
LTYPE
  5
AC
330
5
100
AcDbSymbolTableRecord
100
AcDbLinetypeTableRecord
  2
SXF_一点二短鎖線
 70
     0
  3
11 double-dashed_dotted -- -- . -- --
 72
    65
 73
     6
 40
16.75
 49
6.0
 74
     0
 49
-1.5
 74
     0
 49
6.0
 74
     0
 49
-1.5
 74
     0
 49
0.25
 74
     0
 49
-1.5
 74
     0
  0
LTYPE
  5
AD
330
5
100
AcDbSymbolTableRecord
100
AcDbLinetypeTableRecord
  2
SXF_二点短鎖線
 70
     0
  3
12 dashed_double_dotted -- . . -- . . --
 72
    65
 73
     6
 40
11.0
 49
6.0
 74
     0
 49
-1.5
 74
     0
 49
0.25
 74
     0
 49
-1.5
 74
     0
 49
0.25
 74
     0
 49
-1.5
 74
     0
  0
LTYPE
  5
AE
330
5
100
AcDbSymbolTableRecord
100
AcDbLinetypeTableRecord
  2
SXF_二点二短鎖線
 70
     0
  3
13 double-dashed_double-dotted -- -- . . -- --
 72
    65
 73
     8
 40
18.5
 49
6.0
 74
     0
 49
-1.5
 74
     0
 49
6.0
 74
     0
 49
-1.5
 74
     0
 49
0.25
 74
     0
 49
-1.5
 74
     0
 49
0.25
 74
     0
 49
-1.5
 74
     0
  0
LTYPE
  5
AF
330
5
100
AcDbSymbolTableRecord
100
AcDbLinetypeTableRecord
  2
SXF_三点短鎖線
 70
     0
  3
14 dashed triplicate-dotted -- . . . -- . . . --
 72
    65
 73
     8
 40
12.75
 49
6.0
 74
     0
 49
-1.5
 74
     0
 49
0.25
 74
     0
 49
-1.5
 74
     0
 49
0.25
 74
     0
 49
-1.5
 74
     0
 49
0.25
 74
     0
 49
-1.5
 74
     0
  0
LTYPE
  5
B0
330
5
100
AcDbSymbolTableRecord
100
AcDbLinetypeTableRecord
  2
SXF_三点二短鎖線
 70
     0
  3
15 double-dashed triplicate-dotted -- -- . . . -- -- 
 72
    65
 73
    10
 40
20.25
 49
6.0
 74
     0
 49
-1.5
 74
     0
 49
6.0
 74
     0
 49
-1.5
 74
     0
 49
0.25
 74
     0
 49
-1.5
 74
     0
 49
0.25
 74
     0
 49
-1.5
 74
     0
 49
0.25
 74
     0
 49
-1.5
 74
     0
  0
ENDTAB
  0
TABLE
  2
LAYER
  5
2
330
0
100
AcDbSymbolTable
 70
     2
  0
LAYER
  5
10
330
2
100
AcDbSymbolTableRecord
100
AcDbLayerTableRecord
  2
0
 70
     0
 62
     7
  6
Continuous
370
    -3
390
F
  0
LAYER
  5
B1
330
2
100
AcDbSymbolTableRecord
100
AcDbLayerTableRecord
  2
LAYER0004
 70
     0
 62
     7
  6
Continuous
370
    -3
390
F
  0
ENDTAB
  0
TABLE
  2
STYLE
  5
3
330
0
100
AcDbSymbolTable
 70
     3
  0
STYLE
  5
11
330
3
100
AcDbSymbolTableRecord
100
AcDbTextStyleTableRecord
  2
Standard
 70
     0
 40
0.0
 41
1.0
 50
0.0
 71
     0
 42
0.2
  3
txt.shx
  4
bigfont.shx
  0
STYLE
  5
E9
330
3
100
AcDbSymbolTableRecord
100
AcDbTextStyleTableRecord
  2
dcStyle1
 70
     0
 40
0.0
 41
1.320000000000001
 50
0.0
 71
     0
 42
0.2
  3
txt.shx
  4
bigfont
  0
STYLE
  5
2A3
330
3
100
AcDbSymbolTableRecord
100
AcDbTextStyleTableRecord
  2
dcStyle0
 70
     0
 40
0.0
 41
0.8
 50
0.0
 71
     0
 42
0.2
  3
HGRGE.TTC
  4

1001
ACAD
1000
HGｺﾞｼｯｸE
1071
    32802
  0
ENDTAB
  0
TABLE
  2
VIEW
  5
6
330
0
100
AcDbSymbolTable
 70
     0
  0
ENDTAB
  0
TABLE
  2
UCS
  5
7
330
0
100
AcDbSymbolTable
 70
     0
  0
ENDTAB
  0
TABLE
  2
APPID
  5
9
330
0
100
AcDbSymbolTable
 70
     3
  0
APPID
  5
12
330
9
100
AcDbSymbolTableRecord
100
AcDbRegAppTableRecord
  2
ACAD
 70
     0
  0
APPID
  5
6E
330
9
100
AcDbSymbolTableRecord
100
AcDbRegAppTableRecord
  2
DaFusionOut
 70
     0
  0
APPID
  5
340
330
9
100
AcDbSymbolTableRecord
100
AcDbRegAppTableRecord
  2
ACAD_MLEADERVER
 70
     0
  0
ENDTAB
  0
TABLE
  2
DIMSTYLE
  5
A
330
0
100
AcDbSymbolTable
 70
     1
100
AcDbDimStyleTable
  0
DIMSTYLE
105
27
330
A
100
AcDbSymbolTableRecord
100
AcDbDimStyleTableRecord
  2
Standard
 70
     0
178
     0
340
11
  0
ENDTAB
  0
TABLE
  2
BLOCK_RECORD
  5
1
330
0
100
AcDbSymbolTable
 70
    17
  0
BLOCK_RECORD
  5
1F
330
1
100
AcDbSymbolTableRecord
100
AcDbBlockTableRecord
  2
*Model_Space
340
22
  0
BLOCK_RECORD
  5
1B
330
1
100
AcDbSymbolTableRecord
100
AcDbBlockTableRecord
  2
*Paper_Space
340
1E
  0
BLOCK_RECORD
  5
23
330
1
100
AcDbSymbolTableRecord
100
AcDbBlockTableRecord
  2
*Paper_Space0
340
26
  0
BLOCK_RECORD
  5
B3
330
1
100
AcDbSymbolTableRecord
100
AcDbBlockTableRecord
  2
DC_IMAGEDIMGROUP_1
340
0
102
{BLKREFS
331
2F0
102
}
  0
BLOCK_RECORD
  5
B6
330
1
100
AcDbSymbolTableRecord
100
AcDbBlockTableRecord
  2
DC_IMAGEDIMGROUP_2
340
0
102
{BLKREFS
331
2F1
102
}
  0
BLOCK_RECORD
  5
B9
330
1
100
AcDbSymbolTableRecord
100
AcDbBlockTableRecord
  2
DC_IMAGEDIMGROUP_3
340
0
102
{BLKREFS
331
2F2
102
}
  0
BLOCK_RECORD
  5
BC
330
1
100
AcDbSymbolTableRecord
100
AcDbBlockTableRecord
  2
DC_IMAGEDIMGROUP_4
340
0
102
{BLKREFS
331
2F3
102
}
  0
BLOCK_RECORD
  5
BF
330
1
100
AcDbSymbolTableRecord
100
AcDbBlockTableRecord
  2
DC_IMAGEDIMGROUP_5
340
0
102
{BLKREFS
331
2F4
102
}
  0
BLOCK_RECORD
  5
C2
330
1
100
AcDbSymbolTableRecord
100
AcDbBlockTableRecord
  2
DC_IMAGEDIMGROUP_6
340
0
102
{BLKREFS
331
2F5
102
}
  0
BLOCK_RECORD
  5
C5
330
1
100
AcDbSymbolTableRecord
100
AcDbBlockTableRecord
  2
DC_IMAGEDIMGROUP_7
340
0
102
{BLKREFS
331
2F6
102
}
  0
BLOCK_RECORD
  5
C8
330
1
100
AcDbSymbolTableRecord
100
AcDbBlockTableRecord
  2
DC_IMAGEDIMGROUP_8
340
0
102
{BLKREFS
331
2F7
102
}
  0
BLOCK_RECORD
  5
CB
330
1
100
AcDbSymbolTableRecord
100
AcDbBlockTableRecord
  2
DC_IMAGEDIMGROUP_9
340
0
102
{BLKREFS
331
2F8
102
}
  0
BLOCK_RECORD
  5
CE
330
1
100
AcDbSymbolTableRecord
100
AcDbBlockTableRecord
  2
DC_IMAGEDIMGROUP_10
340
0
102
{BLKREFS
331
2F9
102
}
  0
BLOCK_RECORD
  5
D1
330
1
100
AcDbSymbolTableRecord
100
AcDbBlockTableRecord
  2
DC_GROUP_SB09-1813G_1
340
0
102
{BLKREFS
331
2FA
102
}
  0
BLOCK_RECORD
  5
D4
330
1
100
AcDbSymbolTableRecord
100
AcDbBlockTableRecord
  2
DC_GROUP_SB09-1813G_2
340
0
102
{BLKREFS
331
2FB
102
}
  0
BLOCK_RECORD
  5
D7
330
1
100
AcDbSymbolTableRecord
100
AcDbBlockTableRecord
  2
DC_GROUP_SB09-1813G_3
340
0
102
{BLKREFS
331
2FC
102
}
  0
BLOCK_RECORD
  5
DA
330
1
100
AcDbSymbolTableRecord
100
AcDbBlockTableRecord
  2
DC_GROUP_SB09-1813G_4
340
0
102
{BLKREFS
331
2FD
102
}
  0
BLOCK_RECORD
  5
DD
330
1
100
AcDbSymbolTableRecord
100
AcDbBlockTableRecord
  2
DC_GROUP_SB09-1813G_5
340
0
102
{BLKREFS
331
2FE
102
}
  0
BLOCK_RECORD
  5
E1
330
1
100
AcDbSymbolTableRecord
100
AcDbBlockTableRecord
  2
_Open30
340
0
102
{BLKREFS
331
E7
331
E8
331
F0
331
F1
331
F7
331
F9
331
FC
331
FD
331
104
331
105
331
108
331
109
331
10E
331
10F
331
117
331
119
331
11E
331
11F
331
122
331
123
331
189
331
18D
331
193
102
}
  0
ENDTAB
  0
ENDSEC
  0
SECTION
  2
BLOCKS
  0
BLOCK
  5
20
330
1F
100
AcDbEntity
  8
0
100
AcDbBlockBegin
  2
*Model_Space
 70
     0
 10
0.0
 20
0.0
 30
0.0
  3
*Model_Space
  1

  0
ENDBLK
  5
21
330
1F
100
AcDbEntity
  8
0
100
AcDbBlockEnd
  0
BLOCK
  5
1C
330
1B
100
AcDbEntity
 67
     1
  8
0
100
AcDbBlockBegin
  2
*Paper_Space
 70
     0
 10
0.0
 20
0.0
 30
0.0
  3
*Paper_Space
  1

  0
ENDBLK
  5
1D
330
1B
100
AcDbEntity
 67
     1
  8
0
100
AcDbBlockEnd
  0
BLOCK
  5
24
330
23
100
AcDbEntity
  8
0
100
AcDbBlockBegin
  2
*Paper_Space0
 70
     0
 10
0.0
 20
0.0
 30
0.0
  3
*Paper_Space0
  1

  0
ENDBLK
  5
25
330
23
100
AcDbEntity
  8
0
100
AcDbBlockEnd
  0
BLOCK
  5
B4
330
B3
100
AcDbEntity
  8
0
100
AcDbBlockBegin
  2
DC_IMAGEDIMGROUP_1
 70
     0
 10
0.0
 20
0.0
 30
0.0
  3
DC_IMAGEDIMGROUP_1
  1

  0
LINE
  5
E0
330
B3
100
AcDbEntity
  8
0
  6
Continuous
 62
     4
370
    13
100
AcDbLine
 10
-128.6782820091071
 20
-1667.434240884546
 30
0.0
 11
-128.6782820091071
 21
-1107.434240884546
 31
0.0
  0
INSERT
  5
E7
330
B3
100
AcDbEntity
  8
0
 62
     4
100
AcDbBlockReference
  2
_Open30
 10
-128.6782820091071
 20
-1667.434240884546
 30
0.0
 41
30.00002807615286
 42
29.99989368223643
 50
270.0
  0
INSERT
  5
E8
330
B3
100
AcDbEntity
  8
0
 62
     4
100
AcDbBlockReference
  2
_Open30
 10
-128.6782820091071
 20
-1107.434240884546
 30
0.0
 41
30.00002807615286
 42
29.99989368223643
 50
90.0
  0
TEXT
  5
EA
330
B3
100
AcDbEntity
  8
0
 62
     2
100
AcDbText
 10
-152.6782820091071
 20
-1435.434240884546
 30
0.0
 40
40.0
  1
560
 50
90.0
 41
0.8842105263157894
  7
dcStyle1
 72
     5
 11
-152.6782820091071
 21
-1339.434240884546
 31
0.0
100
AcDbText
  0
LINE
  5
EB
330
B3
100
AcDbEntity
  8
0
  6
Continuous
 62
     4
370
    18
100
AcDbLine
 10
173.294651431138
 20
-1667.434240884546
 30
0.0
 11
-144.6782820091071
 21
-1667.434240884546
 31
0.0
  0
LINE
  5
EC
330
B3
100
AcDbEntity
  8
0
  6
Continuous
 62
     4
370
    18
100
AcDbLine
 10
228.294651431138
 20
-1107.434240884546
 30
0.0
 11
-144.6782820091071
 21
-1107.434240884546
 31
0.0
  0
ENDBLK
  5
B5
330
B3
100
AcDbEntity
  8
0
100
AcDbBlockEnd
  0
BLOCK
  5
B7
330
B6
100
AcDbEntity
  8
0
100
AcDbBlockBegin
  2
DC_IMAGEDIMGROUP_2
 70
     0
 10
0.0
 20
0.0
 30
0.0
  3
DC_IMAGEDIMGROUP_2
  1

  0
LINE
  5
ED
330
B6
100
AcDbEntity
  8
0
  6
Continuous
 62
     4
370
    13
100
AcDbLine
 10
196.294651431138
 20
-1607.434240884546
 30
0.0
 11
-9.478437919800285
 21
-1607.434240884546
 31
0.0
  0
LINE
  5
EE
330
B6
100
AcDbEntity
  8
0
  6
Continuous
 62
     4
370
    13
100
AcDbLine
 10
236.294651431138
 20
-1107.434240884546
 30
0.0
 11
-9.478437919800285
 21
-1107.434240884546
 31
0.0
  0
LINE
  5
EF
330
B6
100
AcDbEntity
  8
0
  6
Continuous
 62
     4
370
    13
100
AcDbLine
 10
6.521562080199715
 20
-1607.434240884546
 30
0.0
 11
6.521562080199715
 21
-1107.434240884546
 31
0.0
  0
INSERT
  5
F0
330
B6
100
AcDbEntity
  8
0
 62
     4
100
AcDbBlockReference
  2
_Open30
 10
6.521562080199715
 20
-1607.434240884546
 30
0.0
 41
30.00002807615286
 42
29.99989368223643
 50
270.0
  0
INSERT
  5
F1
330
B6
100
AcDbEntity
  8
0
 62
     4
100
AcDbBlockReference
  2
_Open30
 10
6.521562080199715
 20
-1107.434240884546
 30
0.0
 41
30.00002807615286
 42
29.99989368223643
 50
90.0
  0
TEXT
  5
F2
330
B6
100
AcDbEntity
  8
0
 62
     2
100
AcDbText
 10
-17.47843791980028
 20
-1405.434240884546
 30
0.0
 40
40.0
  1
500
 50
90.0
 41
0.8842105263157894
  7
dcStyle1
 72
     5
 11
-17.47843791980028
 21
-1309.434240884546
 31
0.0
100
AcDbText
  0
ENDBLK
  5
B8
330
B6
100
AcDbEntity
  8
0
100
AcDbBlockEnd
  0
BLOCK
  5
BA
330
B9
100
AcDbEntity
  8
0
100
AcDbBlockBegin
  2
DC_IMAGEDIMGROUP_3
 70
     0
 10
0.0
 20
0.0
 30
0.0
  3
DC_IMAGEDIMGROUP_3
  1

  0
LINE
  5
F3
330
B9
100
AcDbEntity
  8
0
  6
Continuous
 62
     4
370
    13
100
AcDbLine
 10
181.294651431138
 20
-1667.434240884546
 30
0.0
 11
-9.478437919800285
 21
-1667.434240884546
 31
0.0
  0
LINE
  5
F4
330
B9
100
AcDbEntity
  8
0
  6
Continuous
 62
     4
370
    13
100
AcDbLine
 10
196.294651431138
 20
-1607.434240884546
 30
0.0
 11
-9.478437919800285
 21
-1607.434240884546
 31
0.0
  0
LINE
  5
F5
330
B9
100
AcDbEntity
  8
0
  6
Continuous
 62
     4
370
    13
100
AcDbLine
 10
6.521562080199715
 20
-1607.434240884546
 30
0.0
 11
6.521562080199715
 21
-1667.434240884546
 31
0.0
  0
LINE
  5
F6
330
B9
100
AcDbEntity
  8
0
  6
Continuous
 62
     4
370
    13
100
AcDbLine
 10
6.521562080199728
 20
-1874.872680460471
 30
0.0
 11
6.521562080199715
 21
-1667.434240884546
 31
0.0
  0
INSERT
  5
F7
330
B9
100
AcDbEntity
  8
0
 62
     4
100
AcDbBlockReference
  2
_Open30
 10
6.521562080199715
 20
-1667.434240884546
 30
0.0
 41
30.00002807615286
 42
29.99989368223643
 50
90.0
  0
LINE
  5
F8
330
B9
100
AcDbEntity
  8
0
  6
Continuous
 62
     4
370
    13
100
AcDbLine
 10
6.521562080199715
 20
-1511.434240884546
 30
0.0
 11
6.521562080199715
 21
-1607.434240884546
 31
0.0
  0
INSERT
  5
F9
330
B9
100
AcDbEntity
  8
0
 62
     4
100
AcDbBlockReference
  2
_Open30
 10
6.521562080199715
 20
-1607.434240884546
 30
0.0
 41
30.00002807615286
 42
29.99989368223643
 50
270.0
  0
TEXT
  5
FA
330
B9
100
AcDbEntity
  8
0
 62
     2
100
AcDbText
 10
-17.47843791980029
 20
-1820.472680460471
 30
0.0
 40
40.0
  1
60
 50
90.0
 41
0.908108108108108
  7
dcStyle1
 72
     5
 11
-17.47843791980029
 21
-1756.472680460471
 31
0.0
100
AcDbText
  0
ENDBLK
  5
BB
330
B9
100
AcDbEntity
  8
0
100
AcDbBlockEnd
  0
BLOCK
  5
BD
330
BC
100
AcDbEntity
  8
0
100
AcDbBlockBegin
  2
DC_IMAGEDIMGROUP_4
 70
     0
 10
0.0
 20
0.0
 30
0.0
  3
DC_IMAGEDIMGROUP_4
  1

  0
LINE
  5
FB
330
BC
100
AcDbEntity
  8
0
  6
Continuous
 62
     4
370
    13
100
AcDbLine
 10
214.294651431138
 20
-737.6059543867211
 30
0.0
 11
2044.294651431138
 21
-737.6059543867211
 31
0.0
  0
INSERT
  5
FC
330
BC
100
AcDbEntity
  8
0
 62
     4
100
AcDbBlockReference
  2
_Open30
 10
214.294651431138
 20
-737.6059543867211
 30
0.0
 41
30.00002807615286
 42
29.99989368223643
 50
180.0
  0
INSERT
  5
FD
330
BC
100
AcDbEntity
  8
0
 62
     4
100
AcDbBlockReference
  2
_Open30
 10
2044.294651431138
 20
-737.6059543867211
 30
0.0
 41
30.00002807615286
 42
29.99989368223643
 50
360.0
  0
TEXT
  5
FE
330
BC
100
AcDbEntity
  8
0
 62
     2
100
AcDbText
 10
1065.294651431138
 20
-721.6059543867211
 30
0.0
 40
40.0
  1
1830
 41
0.8727272727272728
  7
dcStyle1
 72
     5
 11
1193.294651431138
 21
-721.6059543867211
 31
0.0
100
AcDbText
  0
LINE
  5
FF
330
BC
100
AcDbEntity
  8
0
  6
Continuous
 62
     4
370
    18
100
AcDbLine
 10
214.294651431138
 20
-93.78486153365111
 30
0.0
 11
214.294651431138
 21
-753.6059543867211
 31
0.0
  0
LINE
  5
100
330
BC
100
AcDbEntity
  8
0
  6
Continuous
 62
     4
370
    18
100
AcDbLine
 10
2044.294651431138
 20
-93.78486153365111
 30
0.0
 11
2044.294651431138
 21
-753.6059543867211
 31
0.0
  0
ENDBLK
  5
BE
330
BC
100
AcDbEntity
  8
0
100
AcDbBlockEnd
  0
BLOCK
  5
C0
330
BF
100
AcDbEntity
  8
0
100
AcDbBlockBegin
  2
DC_IMAGEDIMGROUP_5
 70
     0
 10
0.0
 20
0.0
 30
0.0
  3
DC_IMAGEDIMGROUP_5
  1

  0
LINE
  5
101
330
BF
100
AcDbEntity
  8
0
  6
Continuous
 62
     4
370
    13
100
AcDbLine
 10
126.2301790027052
 20
-29.54127820063502
 30
0.0
 11
-8.678282009107122
 21
-29.54127820063502
 31
0.0
  0
LINE
  5
102
330
BF
100
AcDbEntity
  8
0
  6
Continuous
 62
     4
370
    13
100
AcDbLine
 10
126.2301790027031
 20
910.4587217993651
 30
0.0
 11
-8.678282009107122
 21
910.4587217993651
 31
0.0
  0
LINE
  5
103
330
BF
100
AcDbEntity
  8
0
  6
Continuous
 62
     4
370
    13
100
AcDbLine
 10
7.321717990892893
 20
-29.54127820063502
 30
0.0
 11
7.321717990892893
 21
910.4587217993649
 31
0.0
  0
INSERT
  5
104
330
BF
100
AcDbEntity
  8
0
 62
     4
100
AcDbBlockReference
  2
_Open30
 10
7.321717990892893
 20
-29.54127820063502
 30
0.0
 41
30.00002807615286
 42
29.99989368223643
 50
270.0
  0
INSERT
  5
105
330
BF
100
AcDbEntity
  8
0
 62
     4
100
AcDbBlockReference
  2
_Open30
 10
7.321717990892893
 20
910.4587217993649
 30
0.0
 41
30.00002807615286
 42
29.99989368223643
 50
90.0
  0
TEXT
  5
106
330
BF
100
AcDbEntity
  8
0
 62
     2
100
AcDbText
 10
-16.67828200910712
 20
392.4587217993648
 30
0.0
 40
39.99999999999999
  1
940
 50
90.0
 41
0.8842105263157896
  7
dcStyle1
 72
     5
 11
-16.67828200910712
 21
488.4587217993648
 31
0.0
100
AcDbText
  0
ENDBLK
  5
C1
330
BF
100
AcDbEntity
  8
0
100
AcDbBlockEnd
  0
BLOCK
  5
C3
330
C2
100
AcDbEntity
  8
0
100
AcDbBlockBegin
  2
DC_IMAGEDIMGROUP_6
 70
     0
 10
0.0
 20
0.0
 30
0.0
  3
DC_IMAGEDIMGROUP_6
  1

  0
LINE
  5
107
330
C2
100
AcDbEntity
  8
0
  6
Continuous
 62
     4
370
    13
100
AcDbLine
 10
189.294651431138
 20
-856.0302059300993
 30
0.0
 11
2069.294651431138
 21
-856.0302059300993
 31
0.0
  0
INSERT
  5
108
330
C2
100
AcDbEntity
  8
0
 62
     4
100
AcDbBlockReference
  2
_Open30
 10
189.294651431138
 20
-856.0302059300993
 30
0.0
 41
30.00002807615286
 42
29.99989368223643
 50
180.0
  0
INSERT
  5
109
330
C2
100
AcDbEntity
  8
0
 62
     4
100
AcDbBlockReference
  2
_Open30
 10
2069.294651431138
 20
-856.0302059300993
 30
0.0
 41
30.00002807615286
 42
29.99989368223643
 50
360.0
  0
TEXT
  5
10A
330
C2
100
AcDbEntity
  8
0
 62
     2
100
AcDbText
 10
1065.294651431138
 20
-840.0302059300994
 30
0.0
 40
40.0
  1
1880
 41
0.8727272727272728
  7
dcStyle1
 72
     5
 11
1193.294651431138
 21
-840.0302059300994
 31
0.0
100
AcDbText
  0
LINE
  5
10B
330
C2
100
AcDbEntity
  8
0
  6
Continuous
 62
     4
370
    18
100
AcDbLine
 10
189.294651431138
 20
-85.54127820063502
 30
0.0
 11
189.294651431138
 21
-872.0302059300993
 31
0.0
  0
LINE
  5
10C
330
C2
100
AcDbEntity
  8
0
  6
Continuous
 62
     4
370
    18
100
AcDbLine
 10
2069.294651431138
 20
-85.54127820063502
 30
0.0
 11
2069.294651431138
 21
-872.0302059300993
 31
0.0
  0
ENDBLK
  5
C4
330
C2
100
AcDbEntity
  8
0
100
AcDbBlockEnd
  0
BLOCK
  5
C6
330
C5
100
AcDbEntity
  8
0
100
AcDbBlockBegin
  2
DC_IMAGEDIMGROUP_7
 70
     0
 10
0.0
 20
0.0
 30
0.0
  3
DC_IMAGEDIMGROUP_7
  1

  0
LINE
  5
10D
330
C5
100
AcDbEntity
  8
0
  6
Continuous
 62
     4
370
    13
100
AcDbLine
 10
-112.6782820091071
 20
-227.041278200635
 30
0.0
 11
-112.6782820091071
 21
1107.958721799365
 31
0.0
  0
INSERT
  5
10E
330
C5
100
AcDbEntity
  8
0
 62
     4
100
AcDbBlockReference
  2
_Open30
 10
-112.6782820091071
 20
-227.041278200635
 30
0.0
 41
30.00002807615286
 42
29.99989368223643
 50
270.0
  0
INSERT
  5
10F
330
C5
100
AcDbEntity
  8
0
 62
     4
100
AcDbBlockReference
  2
_Open30
 10
-112.6782820091071
 20
1107.958721799365
 30
0.0
 41
30.00002807615286
 42
29.99989368223643
 50
90.0
  0
TEXT
  5
110
330
C5
100
AcDbEntity
  8
0
 62
     2
100
AcDbText
 10
-136.6782820091071
 20
376.458721799365
 30
0.0
 40
39.99999999999999
  1
1335
 50
90.0
 41
0.8727272727272729
  7
dcStyle1
 72
     5
 11
-136.6782820091071
 21
504.458721799365
 31
0.0
100
AcDbText
  0
LINE
  5
111
330
C5
100
AcDbEntity
  8
0
  6
Continuous
 62
     4
370
    18
100
AcDbLine
 10
223.294651431138
 20
-227.041278200635
 30
0.0
 11
-128.6782820091071
 21
-227.041278200635
 31
0.0
  0
LINE
  5
112
330
C5
100
AcDbEntity
  8
0
  6
Continuous
 62
     4
370
    18
100
AcDbLine
 10
223.294651431138
 20
1107.958721799365
 30
0.0
 11
-128.6782820091071
 21
1107.958721799365
 31
0.0
  0
ENDBLK
  5
C7
330
C5
100
AcDbEntity
  8
0
100
AcDbBlockEnd
  0
BLOCK
  5
C9
330
C8
100
AcDbEntity
  8
0
100
AcDbBlockBegin
  2
DC_IMAGEDIMGROUP_8
 70
     0
 10
0.0
 20
0.0
 30
0.0
  3
DC_IMAGEDIMGROUP_8
  1

  0
LINE
  5
113
330
C8
100
AcDbEntity
  8
0
  6
Continuous
 62
     4
370
    13
100
AcDbLine
 10
2077.294651431138
 20
850.4587217993651
 30
0.0
 11
2278.10788395832
 21
850.4587217993651
 31
0.0
  0
LINE
  5
114
330
C8
100
AcDbEntity
  8
0
  6
Continuous
 62
     4
370
    13
100
AcDbLine
 10
2077.294651431138
 20
970.4587217993651
 30
0.0
 11
2278.10788395832
 21
970.4587217993651
 31
0.0
  0
LINE
  5
115
330
C8
100
AcDbEntity
  8
0
  6
Continuous
 62
     4
370
    13
100
AcDbLine
 10
2262.10788395832
 20
850.4587217993653
 30
0.0
 11
2262.10788395832
 21
970.4587217993653
 31
0.0
  0
LINE
  5
116
330
C8
100
AcDbEntity
  8
0
  6
Continuous
 62
     4
370
    13
100
AcDbLine
 10
2262.10788395832
 20
1202.423201799365
 30
0.0
 11
2262.10788395832
 21
970.4587217993653
 31
0.0
  0
INSERT
  5
117
330
C8
100
AcDbEntity
  8
0
 62
     4
100
AcDbBlockReference
  2
_Open30
 10
2262.10788395832
 20
970.4587217993653
 30
0.0
 41
30.00002807615286
 42
29.99989368223643
 50
270.0
  0
LINE
  5
118
330
C8
100
AcDbEntity
  8
0
  6
Continuous
 62
     4
370
    13
100
AcDbLine
 10
2262.10788395832
 20
754.4587217993653
 30
0.0
 11
2262.10788395832
 21
850.4587217993653
 31
0.0
  0
INSERT
  5
119
330
C8
100
AcDbEntity
  8
0
 62
     4
100
AcDbBlockReference
  2
_Open30
 10
2262.10788395832
 20
850.4587217993653
 30
0.0
 41
30.00002807615286
 42
29.99989368223643
 50
90.0
  0
TEXT
  5
11A
330
C8
100
AcDbEntity
  8
0
 62
     2
100
AcDbText
 10
2246.10788395832
 20
1032.823201799366
 30
0.0
 40
40.0
  1
120
 50
90.0
 41
0.8842105263157894
  7
dcStyle1
 72
     5
 11
2246.10788395832
 21
1128.823201799366
 31
0.0
100
AcDbText
  0
ENDBLK
  5
CA
330
C8
100
AcDbEntity
  8
0
100
AcDbBlockEnd
  0
BLOCK
  5
CC
330
CB
100
AcDbEntity
  8
0
100
AcDbBlockBegin
  2
DC_IMAGEDIMGROUP_9
 70
     0
 10
0.0
 20
0.0
 30
0.0
  3
DC_IMAGEDIMGROUP_9
  1

  0
LINE
  5
11B
330
CB
100
AcDbEntity
  8
0
  6
Continuous
 62
     4
370
    13
100
AcDbLine
 10
529.2946514311388
 20
-191.612283065459
 30
0.0
 11
529.2946514311388
 21
-513.6059543867211
 31
0.0
  0
LINE
  5
11C
330
CB
100
AcDbEntity
  8
0
  6
Continuous
 62
     4
370
    13
100
AcDbLine
 10
1729.294651431139
 20
-191.612283065459
 30
0.0
 11
1729.294651431139
 21
-513.6059543867211
 31
0.0
  0
LINE
  5
11D
330
CB
100
AcDbEntity
  8
0
  6
Continuous
 62
     4
370
    13
100
AcDbLine
 10
529.2946514311388
 20
-497.6059543867211
 30
0.0
 11
1729.294651431139
 21
-497.6059543867211
 31
0.0
  0
INSERT
  5
11E
330
CB
100
AcDbEntity
  8
0
 62
     4
100
AcDbBlockReference
  2
_Open30
 10
529.2946514311388
 20
-497.6059543867211
 30
0.0
 41
30.00002807615286
 42
29.99989368223643
 50
180.0
  0
INSERT
  5
11F
330
CB
100
AcDbEntity
  8
0
 62
     4
100
AcDbBlockReference
  2
_Open30
 10
1729.294651431139
 20
-497.6059543867211
 30
0.0
 41
30.00002807615286
 42
29.99989368223643
 50
360.0
  0
TEXT
  5
120
330
CB
100
AcDbEntity
  8
0
 62
     2
100
AcDbText
 10
1065.294651431139
 20
-481.6059543867211
 30
0.0
 40
40.0
  1
1200
 41
0.8727272727272728
  7
dcStyle1
 72
     5
 11
1193.294651431139
 21
-481.6059543867211
 31
0.0
100
AcDbText
  0
ENDBLK
  5
CD
330
CB
100
AcDbEntity
  8
0
100
AcDbBlockEnd
  0
BLOCK
  5
CF
330
CE
100
AcDbEntity
  8
0
100
AcDbBlockBegin
  2
DC_IMAGEDIMGROUP_10
 70
     0
 10
0.0
 20
0.0
 30
0.0
  3
DC_IMAGEDIMGROUP_10
  1

  0
LINE
  5
121
330
CE
100
AcDbEntity
  8
0
  6
Continuous
 62
     4
370
    13
100
AcDbLine
 10
239.294651431138
 20
-617.6059543867211
 30
0.0
 11
2019.294651431139
 21
-617.6059543867211
 31
0.0
  0
INSERT
  5
122
330
CE
100
AcDbEntity
  8
0
 62
     4
100
AcDbBlockReference
  2
_Open30
 10
239.294651431138
 20
-617.6059543867211
 30
0.0
 41
30.00002807615286
 42
29.99989368223643
 50
180.0
  0
INSERT
  5
123
330
CE
100
AcDbEntity
  8
0
 62
     4
100
AcDbBlockReference
  2
_Open30
 10
2019.294651431139
 20
-617.6059543867211
 30
0.0
 41
30.00002807615286
 42
29.99989368223643
 50
360.0
  0
TEXT
  5
124
330
CE
100
AcDbEntity
  8
0
 62
     2
100
AcDbText
 10
1065.294651431138
 20
-601.6059543867211
 30
0.0
 40
40.0
  1
1780
 41
0.8727272727272728
  7
dcStyle1
 72
     5
 11
1193.294651431138
 21
-601.6059543867211
 31
0.0
100
AcDbText
  0
LINE
  5
125
330
CE
100
AcDbEntity
  8
0
  6
Continuous
 62
     4
370
    18
100
AcDbLine
 10
239.294651431138
 20
-243.041278200635
 30
0.0
 11
239.294651431138
 21
-633.6059543867211
 31
0.0
  0
LINE
  5
126
330
CE
100
AcDbEntity
  8
0
  6
Continuous
 62
     4
370
    18
100
AcDbLine
 10
2019.294651431139
 20
-243.041278200635
 30
0.0
 11
2019.294651431139
 21
-633.6059543867211
 31
0.0
  0
ENDBLK
  5
D0
330
CE
100
AcDbEntity
  8
0
100
AcDbBlockEnd
  0
BLOCK
  5
D2
330
D1
100
AcDbEntity
  8
0
100
AcDbBlockBegin
  2
DC_GROUP_SB09-1813G_1
 70
     0
 10
0.0
 20
0.0
 30
0.0
  3
DC_GROUP_SB09-1813G_1
  1

  0
LINE
  5
127
330
D1
100
AcDbEntity
  8
0
  6
Continuous
 62
     4
370
    13
100
AcDbLine
 10
-1552.103266220905
 20
-1609.739610780917
 30
0.0
 11
-1528.862531384148
 21
-1586.49887594416
 31
0.0
  0
LINE
  5
128
330
D1
100
AcDbEntity
  8
0
  6
Continuous
 62
     4
370
    13
100
AcDbLine
 10
-1494.477271364322
 20
-1552.113615924334
 30
0.0
 11
-1476.685795961838
 21
-1534.32214052185
 31
0.0
  0
LINE
  5
129
330
D1
100
AcDbEntity
  8
0
  6
Continuous
 62
     4
370
    13
100
AcDbLine
 10
-1549.584869050681
 20
-1595.907505111708
 30
0.0
 11
-1526.34413421426
 21
-1572.666770275287
 31
0.0
  0
LINE
  5
12A
330
D1
100
AcDbEntity
  8
0
  6
Continuous
 62
     4
370
    13
100
AcDbLine
 10
-1499.331862264183
 20
-1545.65449832521
 30
0.0
 11
-1487.999504460823
 21
-1534.32214052185
 31
0.0
  0
LINE
  5
12B
330
D1
100
AcDbEntity
  8
0
  6
Continuous
 62
     4
370
    13
100
AcDbLine
 10
-1547.066471880458
 20
-1582.0753994425
 30
0.0
 11
-1523.825737044372
 21
-1558.834664606414
 31
0.0
  0
LINE
  5
12C
330
D1
100
AcDbEntity
  8
0
  6
Continuous
 62
     4
370
    13
100
AcDbLine
 10
-1510.645570763168
 20
-1545.65449832521
 30
0.0
 11
-1499.313212959808
 21
-1534.32214052185
 31
0.0
  0
LINE
  5
12D
330
D1
100
AcDbEntity
  8
0
  6
Continuous
 62
     4
370
    13
100
AcDbLine
 10
-1544.548074710234
 20
-1568.243293773292
 30
0.0
 11
-1510.626921458792
 21
-1534.32214052185
 31
0.0
  0
LINE
  5
12E
330
D1
100
AcDbEntity
  8
0
  6
Continuous
 62
     4
370
    13
100
AcDbLine
 10
-1542.029677540011
 20
-1554.411188104084
 30
0.0
 11
-1518.788942704045
 21
-1531.170453268118
 31
0.0
  0
LINE
  5
12F
330
D1
100
AcDbEntity
  8
0
  6
Continuous
 62
     4
370
    13
100
AcDbLine
 10
-1544.586696260122
 20
-1545.65449832521
 30
0.0
 11
-1516.270545535681
 21
-1517.338347600769
 31
0.0
  0
LINE
  5
130
330
D1
100
AcDbEntity
  8
0
  6
Continuous
 62
     4
370
    13
100
AcDbLine
 10
-1555.900404759107
 20
-1545.65449832521
 30
0.0
 11
-1544.568046955747
 21
-1534.32214052185
 31
0.0
  0
LINE
  5
131
330
D1
100
AcDbEntity
  8
0
  6
Continuous
 62
     4
370
    13
100
AcDbLine
 10
-1536.992883197325
 20
-1526.746976763428
 30
0.0
 11
-1527.575407424552
 21
-1517.329500990655
 31
0.0
  0
LINE
  5
132
330
D1
100
AcDbEntity
  8
0
  6
Continuous
 62
     4
370
    13
100
AcDbLine
 10
-1555.931129931989
 20
-1534.371514999107
 30
0.0
 11
-1555.881755454732
 21
-1534.32214052185
 31
0.0
  0
LINE
  5
133
330
D1
100
AcDbEntity
  8
0
  6
Continuous
 62
     4
370
    13
100
AcDbLine
 10
-1551.891005070741
 20
-1620.841058129738
 30
0.0
 11
-1531.380928554036
 21
-1600.330981613033
 31
0.0
  0
LINE
  5
134
330
D1
100
AcDbEntity
  8
0
  6
Continuous
 62
     4
370
    13
100
AcDbLine
 10
-1510.801550887111
 20
-1579.751603946108
 30
0.0
 11
-1467.690122873253
 21
-1536.64017593225
 31
0.0
  0
LINE
  5
135
330
D1
100
AcDbEntity
  8
0
  6
Continuous
 62
     4
370
    13
100
AcDbLine
 10
-1540.577296571756
 20
-1620.841058129738
 30
0.0
 11
-1533.899325723925
 21
-1614.163087281907
 31
0.0
  0
LINE
  5
136
330
D1
100
AcDbEntity
  8
0
  6
Continuous
 62
     4
370
    13
100
AcDbLine
 10
-1502.217044065208
 20
-1582.48080562319
 30
0.0
 11
-1472.822364315151
 21
-1553.086125873133
 31
0.0
  0
ENDBLK
  5
D3
330
D1
100
AcDbEntity
  8
0
100
AcDbBlockEnd
  0
BLOCK
  5
D5
330
D4
100
AcDbEntity
  8
0
100
AcDbBlockBegin
  2
DC_GROUP_SB09-1813G_2
 70
     0
 10
0.0
 20
0.0
 30
0.0
  3
DC_GROUP_SB09-1813G_2
  1

  0
LINE
  5
137
330
D4
100
AcDbEntity
  8
0
  6
Continuous
 62
     4
370
    13
100
AcDbLine
 10
-1648.751415025774
 20
-1597.676128208744
 30
0.0
 11
-1631.956840119842
 21
-1580.881553302812
 31
0.0
  0
LINE
  5
138
330
D4
100
AcDbEntity
  8
0
  6
Continuous
 62
     4
370
    13
100
AcDbLine
 10
-1619.696810542835
 20
-1568.621523725805
 30
0.0
 11
-1583.685669582453
 21
-1532.610382765424
 31
0.0
  0
LINE
  5
139
330
D4
100
AcDbEntity
  8
0
  6
Continuous
 62
     4
370
    13
100
AcDbLine
 10
-1648.751415025774
 20
-1586.362419709759
 30
0.0
 11
-1631.956840119842
 21
-1569.567844803827
 31
0.0
  0
LINE
  5
13A
330
D4
100
AcDbEntity
  8
0
  6
Continuous
 62
     4
370
    13
100
AcDbLine
 10
-1631.412887333762
 20
-1569.023892017748
 30
0.0
 11
-1579.718496306668
 21
-1517.329500990655
 31
0.0
  0
LINE
  5
13B
330
D4
100
AcDbEntity
  8
0
  6
Continuous
 62
     4
370
    13
100
AcDbLine
 10
-1648.751415025774
 20
-1575.048711210775
 30
0.0
 11
-1631.20705802464
 21
-1557.504354209641
 31
0.0
  0
LINE
  5
13C
330
D4
100
AcDbEntity
  8
0
  6
Continuous
 62
     4
370
    13
100
AcDbLine
 10
-1594.289056459817
 20
-1520.586352644819
 30
0.0
 11
-1591.032204805653
 21
-1517.329500990655
 31
0.0
  0
LINE
  5
13D
330
D4
100
AcDbEntity
  8
0
  6
Continuous
 62
     4
370
    13
100
AcDbLine
 10
-1654.040304331731
 20
-1569.023892017748
 30
0.0
 11
-1642.904470579949
 21
-1557.888058265965
 31
0.0
  0
LINE
  5
13E
330
D4
100
AcDbEntity
  8
0
  6
Continuous
 62
     4
370
    13
100
AcDbLine
 10
-1665.354012830716
 20
-1569.023892017748
 30
0.0
 11
-1654.218179078934
 21
-1557.888058265965
 31
0.0
  0
LINE
  5
13F
330
D4
100
AcDbEntity
  8
0
  6
Continuous
 62
     4
370
    13
100
AcDbLine
 10
-1668.351474317494
 20
-1560.707645005541
 30
0.0
 11
-1665.531887577919
 21
-1557.888058265965
 31
0.0
  0
LINE
  5
140
330
D4
100
AcDbEntity
  8
0
  6
Continuous
 62
     4
370
    13
100
AcDbLine
 10
-1740.11907030926
 20
-1609.847823999337
 30
0.0
 11
-1725.971818879241
 21
-1595.700572569317
 31
0.0
  0
LINE
  5
141
330
D4
100
AcDbEntity
  8
0
  6
Continuous
 62
     4
370
    13
100
AcDbLine
 10
-1753.291251977337
 20
-1611.706297168429
 30
0.0
 11
-1722.336694470531
 21
-1580.751739661623
 31
0.0
  0
LINE
  5
142
330
D4
100
AcDbEntity
  8
0
  6
Continuous
 62
     4
370
    13
100
AcDbLine
 10
-1681.290918683602
 20
-1539.705963874695
 30
0.0
 11
-1672.440349515823
 21
-1530.855394706916
 31
0.0
  0
LINE
  5
143
330
D4
100
AcDbEntity
  8
0
  6
Continuous
 62
     4
370
    13
100
AcDbLine
 10
-1764.604960476322
 20
-1611.706297168429
 30
0.0
 11
-1754.366629115514
 21
-1601.467965807621
 31
0.0
  0
LINE
  5
144
330
D4
100
AcDbEntity
  8
0
  6
Continuous
 62
     4
370
    13
100
AcDbLine
 10
-1737.324887565922
 20
-1584.426224258029
 30
0.0
 11
-1719.159450320942
 21
-1566.26078701305
 31
0.0
  0
LINE
  5
145
330
D4
100
AcDbEntity
  8
0
  6
Continuous
 62
     4
370
    13
100
AcDbLine
 10
-1693.186901858535
 20
-1540.288238550643
 30
0.0
 11
-1687.932302163568
 21
-1535.033638855677
 31
0.0
  0
LINE
  5
146
330
D4
100
AcDbEntity
  8
0
  6
Continuous
 62
     4
370
    13
100
AcDbLine
 10
-1775.918668975307
 20
-1611.706297168429
 30
0.0
 11
-1766.783908015116
 21
-1602.571536208239
 31
0.0
  0
LINE
  5
147
330
D4
100
AcDbEntity
  8
0
  6
Continuous
 62
     4
370
    13
100
AcDbLine
 10
-1733.982246641876
 20
-1569.769874834999
 30
0.0
 11
-1715.982206171353
 21
-1551.769834364476
 31
0.0
  0
LINE
  5
148
330
D4
100
AcDbEntity
  8
0
  6
Continuous
 62
     4
370
    13
100
AcDbLine
 10
-1694.573685648264
 20
-1530.361313841387
 30
0.0
 11
-1691.171668503059
 21
-1526.959296696183
 31
0.0
  0
LINE
  5
149
330
D4
100
AcDbEntity
  8
0
  6
Continuous
 62
     4
370
    13
100
AcDbLine
 10
-1787.232377474291
 20
-1611.706297168429
 30
0.0
 11
-1778.097616514101
 21
-1602.571536208239
 31
0.0
  0
LINE
  5
14A
330
D4
100
AcDbEntity
  8
0
  6
Continuous
 62
     4
370
    13
100
AcDbLine
 10
-1743.056576083881
 20
-1567.530495778019
 30
0.0
 11
-1733.858130395694
 21
-1558.332050089832
 31
0.0
  0
LINE
  5
14B
330
D4
100
AcDbEntity
  8
0
  6
Continuous
 62
     4
370
    13
100
AcDbLine
 10
-1730.715721547042
 20
-1555.189641241181
 30
0.0
 11
-1712.804962021764
 21
-1537.278881715903
 31
0.0
  0
LINE
  5
14C
330
D4
100
AcDbEntity
  8
0
  6
Continuous
 62
     4
370
    13
100
AcDbLine
 10
-1798.546085973277
 20
-1611.706297168429
 30
0.0
 11
-1789.411325013086
 21
-1602.571536208239
 31
0.0
  0
LINE
  5
14D
330
D4
100
AcDbEntity
  8
0
  6
Continuous
 62
     4
370
    13
100
AcDbLine
 10
-1754.370284582866
 20
-1567.530495778019
 30
0.0
 11
-1745.171838894679
 21
-1558.332050089832
 31
0.0
  0
LINE
  5
14E
330
D4
100
AcDbEntity
  8
0
  6
Continuous
 62
     4
370
    13
100
AcDbLine
 10
-1727.449196451094
 20
-1540.609407646248
 30
0.0
 11
-1713.799085501029
 21
-1526.959296696183
 31
0.0
  0
LINE
  5
14F
330
D4
100
AcDbEntity
  8
0
  6
Continuous
 62
     4
370
    13
100
AcDbLine
 10
-1803.951564535084
 20
-1605.798067231252
 30
0.0
 11
-1800.725033512071
 21
-1602.571536208239
 31
0.0
  0
LINE
  5
150
330
D4
100
AcDbEntity
  8
0
  6
Continuous
 62
     4
370
    13
100
AcDbLine
 10
-1765.683993081851
 20
-1567.530495778019
 30
0.0
 11
-1756.485547393664
 21
-1558.332050089832
 31
0.0
  0
LINE
  5
151
330
D4
100
AcDbEntity
  8
0
  6
Continuous
 62
     4
370
    13
100
AcDbLine
 10
-1734.247554960204
 20
-1536.094057656373
 30
0.0
 11
-1725.112794000014
 21
-1526.959296696183
 31
0.0
  0
LINE
  5
152
330
D4
100
AcDbEntity
  8
0
  6
Continuous
 62
     4
370
    13
100
AcDbLine
 10
-1745.561263459189
 20
-1536.094057656373
 30
0.0
 11
-1736.426502498998
 21
-1526.959296696183
 31
0.0
  0
LINE
  5
153
330
D4
100
AcDbEntity
  8
0
  6
Continuous
 62
     4
370
    13
100
AcDbLine
 10
-1788.286151601349
 20
-1567.505237299548
 30
0.0
 11
-1769.275829600236
 21
-1548.494915298435
 31
0.0
  0
LINE
  5
154
330
D4
100
AcDbEntity
  8
0
  6
Continuous
 62
     4
370
    13
100
AcDbLine
 10
-1756.874971958174
 20
-1536.094057656373
 30
0.0
 11
-1747.740210997983
 21
-1526.959296696183
 31
0.0
  0
LINE
  5
155
330
D4
100
AcDbEntity
  8
0
  6
Continuous
 62
     4
370
    13
100
AcDbLine
 10
-1799.625118578805
 20
-1567.530495778019
 30
0.0
 11
-1759.053919496968
 21
-1526.959296696183
 31
0.0
  0
LINE
  5
156
330
D4
100
AcDbEntity
  8
0
  6
Continuous
 62
     4
370
    13
100
AcDbLine
 10
-1802.442040925804
 20
-1559.033709626033
 30
0.0
 11
-1801.8040661176
 21
-1558.395734817829
 31
0.0
  0
LINE
  5
157
330
D4
100
AcDbEntity
  8
0
  6
Continuous
 62
     4
370
    13
100
AcDbLine
 10
-1777.175112572336
 20
-1533.766781272566
 30
0.0
 11
-1770.367627995952
 21
-1526.959296696183
 31
0.0
  0
LINE
  5
158
330
D4
100
AcDbEntity
  8
0
  6
Continuous
 62
     4
370
    13
100
AcDbLine
 10
-1877.728137498027
 20
-1611.692389200287
 30
0.0
 11
-1852.340754412129
 21
-1586.305006114389
 31
0.0
  0
LINE
  5
159
330
D4
100
AcDbEntity
  8
0
  6
Continuous
 62
     4
370
    13
100
AcDbLine
 10
-1889.055753965155
 20
-1611.706297168429
 30
0.0
 11
-1848.859235804725
 21
-1571.509779008001
 31
0.0
  0
LINE
  5
15A
330
D4
100
AcDbEntity
  8
0
  6
Continuous
 62
     4
370
    13
100
AcDbLine
 10
-1900.369462464139
 20
-1611.706297168429
 30
0.0
 11
-1880.572611024613
 21
-1591.909445728903
 31
0.0
  0
LINE
  5
15B
330
D4
100
AcDbEntity
  8
0
  6
Continuous
 62
     4
370
    13
100
AcDbLine
 10
-1858.113780090283
 20
-1569.450614794573
 30
0.0
 11
-1845.377717197322
 21
-1556.714551901612
 31
0.0
  0
LINE
  5
15C
330
D4
100
AcDbEntity
  8
0
  6
Continuous
 62
     4
370
    13
100
AcDbLine
 10
-1911.683170963124
 20
-1611.706297168429
 30
0.0
 11
-1892.535563478292
 21
-1592.558689683597
 31
0.0
  0
LINE
  5
15D
330
D4
100
AcDbEntity
  8
0
  6
Continuous
 62
     4
370
    13
100
AcDbLine
 10
-1854.430980971054
 20
-1554.45410717636
 30
0.0
 11
-1841.896198589918
 21
-1541.919324795224
 31
0.0
  0
LINE
  5
15E
330
D4
100
AcDbEntity
  8
0
  6
Continuous
 62
     4
370
    13
100
AcDbLine
 10
-1922.996879462109
 20
-1611.706297168429
 30
0.0
 11
-1903.849271977277
 21
-1592.558689683597
 31
0.0
  0
LINE
  5
15F
330
D4
100
AcDbEntity
  8
0
  6
Continuous
 62
     4
370
    13
100
AcDbLine
 10
-1850.748181851826
 20
-1539.457599558147
 30
0.0
 11
-1842.674149673015
 21
-1531.383567379336
 31
0.0
  0
LINE
  5
160
330
D4
100
AcDbEntity
  8
0
  6
Continuous
 62
     4
370
    13
100
AcDbLine
 10
-1934.310587961094
 20
-1611.706297168429
 30
0.0
 11
-1915.162980476262
 21
-1592.558689683597
 31
0.0
  0
LINE
  5
161
330
D4
100
AcDbEntity
  8
0
  6
Continuous
 62
     4
370
    13
100
AcDbLine
 10
-1945.624296460078
 20
-1611.706297168429
 30
0.0
 11
-1926.476688975246
 21
-1592.558689683597
 31
0.0
  0
LINE
  5
162
330
D4
100
AcDbEntity
  8
0
  6
Continuous
 62
     4
370
    13
100
AcDbLine
 10
-1952.820118262099
 20
-1607.588410471466
 30
0.0
 11
-1937.790397474231
 21
-1592.558689683597
 31
0.0
  0
LINE
  5
163
330
D4
100
AcDbEntity
  8
0
  6
Continuous
 62
     4
370
    13
100
AcDbLine
 10
-1884.240088350758
 20
-1539.008380560125
 30
0.0
 11
-1878.431889767532
 21
-1533.2001819769
 31
0.0
  0
LINE
  5
164
330
D4
100
AcDbEntity
  8
0
  6
Continuous
 62
     4
370
    13
100
AcDbLine
 10
-1951.493064966923
 20
-1594.947648677304
 30
0.0
 11
-1949.104105973215
 21
-1592.558689683597
 31
0.0
  0
LINE
  5
165
330
D4
100
AcDbEntity
  8
0
  6
Continuous
 62
     4
370
    13
100
AcDbLine
 10
-1895.553796849743
 20
-1539.008380560125
 30
0.0
 11
-1883.5047129858
 21
-1526.959296696183
 31
0.0
  0
LINE
  5
166
330
D4
100
AcDbEntity
  8
0
  6
Continuous
 62
     4
370
    13
100
AcDbLine
 10
-1906.867505348727
 20
-1539.008380560125
 30
0.0
 11
-1894.818421484785
 21
-1526.959296696183
 31
0.0
  0
LINE
  5
167
330
D4
100
AcDbEntity
  8
0
  6
Continuous
 62
     4
370
    13
100
AcDbLine
 10
-1918.181213847713
 20
-1539.008380560125
 30
0.0
 11
-1906.13212998377
 21
-1526.959296696183
 31
0.0
  0
LINE
  5
168
330
D4
100
AcDbEntity
  8
0
  6
Continuous
 62
     4
370
    13
100
AcDbLine
 10
-1929.494922346697
 20
-1539.008380560125
 30
0.0
 11
-1917.445838482754
 21
-1526.959296696183
 31
0.0
  0
LINE
  5
169
330
D4
100
AcDbEntity
  8
0
  6
Continuous
 62
     4
370
    13
100
AcDbLine
 10
-1938.678795845393
 20
-1536.878545559836
 30
0.0
 11
-1928.759546981739
 21
-1526.959296696183
 31
0.0
  0
LINE
  5
16A
330
D4
100
AcDbEntity
  8
0
  6
Continuous
 62
     4
370
    13
100
AcDbLine
 10
-2024.252660762904
 20
-1611.138701978362
 30
0.0
 11
-2004.601374242671
 21
-1591.487415458129
 31
0.0
  0
LINE
  5
16B
330
D4
100
AcDbEntity
  8
0
  6
Continuous
 62
     4
370
    13
100
AcDbLine
 10
-2036.133964451956
 20
-1611.706297168429
 30
0.0
 11
-2003.012641934993
 21
-1578.584974651466
 31
0.0
  0
LINE
  5
16C
330
D4
100
AcDbEntity
  8
0
  6
Continuous
 62
     4
370
    13
100
AcDbLine
 10
-2047.447672950941
 20
-1611.706297168429
 30
0.0
 11
-2037.163184929276
 21
-1601.421809146764
 31
0.0
  0
LINE
  5
16D
330
D4
100
AcDbEntity
  8
0
  6
Continuous
 62
     4
370
    13
100
AcDbLine
 10
-2020.317930951011
 20
-1584.576555168499
 30
0.0
 11
-2001.563198851525
 21
-1565.821823069014
 31
0.0
  0
LINE
  5
16E
330
D4
100
AcDbEntity
  8
0
  6
Continuous
 62
     4
370
    13
100
AcDbLine
 10
-1988.980581035556
 20
-1553.239205253045
 30
0.0
 11
-1988.248034493211
 21
-1552.5066587107
 31
0.0
  0
LINE
  5
16F
330
D4
100
AcDbEntity
  8
0
  6
Continuous
 62
     4
370
    13
100
AcDbLine
 10
-2058.761381449925
 20
-1611.706297168429
 30
0.0
 11
-2049.626620489736
 21
-1602.571536208239
 31
0.0
  0
LINE
  5
170
330
D4
100
AcDbEntity
  8
0
  6
Continuous
 62
     4
370
    13
100
AcDbLine
 10
-2018.357400137993
 20
-1571.302315856497
 30
0.0
 11
-1991.159528574722
 21
-1544.104444293226
 31
0.0
  0
LINE
  5
171
330
D4
100
AcDbEntity
  8
0
  6
Continuous
 62
     4
370
    13
100
AcDbLine
 10
-2070.075089948911
 20
-1611.706297168429
 30
0.0
 11
-2060.94032898872
 21
-1602.571536208239
 31
0.0
  0
LINE
  5
172
330
D4
100
AcDbEntity
  8
0
  6
Continuous
 62
     4
370
    13
100
AcDbLine
 10
-2016.907957056287
 20
-1558.539164275806
 30
0.0
 11
-1998.368983618801
 21
-1540.000190838321
 31
0.0
  0
LINE
  5
173
330
D4
100
AcDbEntity
  8
0
  6
Continuous
 62
     4
370
    13
100
AcDbLine
 10
-2078.558097587112
 20
-1608.875596307646
 30
0.0
 11
-2072.254037487705
 21
-1602.571536208239
 31
0.0
  0
LINE
  5
174
330
D4
100
AcDbEntity
  8
0
  6
Continuous
 62
     4
370
    13
100
AcDbLine
 10
-2047.025537995074
 20
-1577.343036715608
 30
0.0
 11
-2045.911206222499
 21
-1576.228704943033
 31
0.0
  0
LINE
  5
175
330
D4
100
AcDbEntity
  8
0
  6
Continuous
 62
     4
370
    13
100
AcDbLine
 10
-2022.921706532511
 20
-1553.239205253045
 30
0.0
 11
-1996.641797975648
 21
-1526.959296696183
 31
0.0
  0
LINE
  5
176
330
D4
100
AcDbEntity
  8
0
  6
Continuous
 62
     4
370
    13
100
AcDbLine
 10
-2058.339246494058
 20
-1577.343036715608
 30
0.0
 11
-2044.460209851413
 21
-1563.464000072962
 31
0.0
  0
LINE
  5
177
330
D4
100
AcDbEntity
  8
0
  6
Continuous
 62
     4
370
    13
100
AcDbLine
 10
-2034.235415031495
 20
-1553.239205253045
 30
0.0
 11
-2025.100654071676
 21
-1544.104444293226
 31
0.0
  0
LINE
  5
178
330
D4
100
AcDbEntity
  8
0
  6
Continuous
 62
     4
370
    13
100
AcDbLine
 10
-2013.149072997766
 20
-1532.152863219316
 30
0.0
 11
-2007.955506474633
 21
-1526.959296696183
 31
0.0
  0
LINE
  5
179
330
D4
100
AcDbEntity
  8
0
  6
Continuous
 62
     4
370
    13
100
AcDbLine
 10
-2061.248797203436
 20
-1568.938878926001
 30
0.0
 11
-2036.414362570661
 21
-1544.104444293226
 31
0.0
  0
LINE
  5
17A
330
D4
100
AcDbEntity
  8
0
  6
Continuous
 62
     4
370
    13
100
AcDbLine
 10
-2059.79935412437
 20
-1556.17572734795
 30
0.0
 11
-2041.079278358178
 21
-1537.455651581759
 31
0.0
  0
LINE
  5
17B
330
D4
100
AcDbEntity
  8
0
  6
Continuous
 62
     4
370
    13
100
AcDbLine
 10
-2068.17654052845
 20
-1553.239205253045
 30
0.0
 11
-2059.04177956863
 21
-1544.104444293226
 31
0.0
  0
LINE
  5
17C
330
D4
100
AcDbEntity
  8
0
  6
Continuous
 62
     4
370
    13
100
AcDbLine
 10
-2058.296266266817
 20
-1543.358930991413
 30
0.0
 11
-2041.896631971587
 21
-1526.959296696183
 31
0.0
  0
LINE
  5
17D
330
D4
100
AcDbEntity
  8
0
  6
Continuous
 62
     4
370
    13
100
AcDbLine
 10
-2076.48432616401
 20
-1550.233282389622
 30
0.0
 11
-2070.355488067615
 21
-1544.104444293226
 31
0.0
  0
LINE
  5
17E
330
D4
100
AcDbEntity
  8
0
  6
Continuous
 62
     4
370
    13
100
AcDbLine
 10
-2055.857218425447
 20
-1529.606174651058
 30
0.0
 11
-2053.210340470572
 21
-1526.959296696183
 31
0.0
  0
LINE
  5
17F
330
D4
100
AcDbEntity
  8
0
  6
Continuous
 62
     4
370
    13
100
AcDbLine
 10
-2655.641830169446
 20
-1597.646486942772
 30
0.0
 11
-2634.645008124734
 21
-1576.64966489806
 31
0.0
  0
LINE
  5
180
330
D4
100
AcDbEntity
  8
0
  6
Continuous
 62
     4
370
    13
100
AcDbLine
 10
-2665.85473129166
 20
-1596.545679566002
 30
0.0
 11
-2635.745815501504
 21
-1566.436763775846
 31
0.0
  0
LINE
  5
181
330
D4
100
AcDbEntity
  8
0
  6
Continuous
 62
     4
370
    13
100
AcDbLine
 10
-2673.162120044607
 20
-1592.539359819964
 30
0.0
 11
-2639.752135247541
 21
-1559.129375022899
 31
0.0
  0
LINE
  5
182
330
D4
100
AcDbEntity
  8
0
  6
Continuous
 62
     4
370
    13
100
AcDbLine
 10
-2678.468701078586
 20
-1586.532232354957
 30
0.0
 11
-2645.759262712548
 21
-1553.82279398892
 31
0.0
  0
LINE
  5
183
330
D4
100
AcDbEntity
  8
0
  6
Continuous
 62
     4
370
    13
100
AcDbLine
 10
-2681.623522096735
 20
-1578.373344874122
 30
0.0
 11
-2653.918150193384
 21
-1550.667972970771
 31
0.0
  0
LINE
  5
184
330
D4
100
AcDbEntity
  8
0
  6
Continuous
 62
     4
370
    13
100
AcDbLine
 10
-2680.660737926271
 20
-1566.096852204674
 30
0.0
 11
-2666.194642862831
 21
-1551.630757141234
 31
0.0
  0
LINE
  5
185
330
D4
100
AcDbEntity
  8
0
  6
Continuous
 62
     4
370
    13
100
AcDbLine
 10
-1648.751415025774
 20
-1608.989836707728
 30
0.0
 11
-1631.956840119842
 21
-1592.195261801797
 31
0.0
  0
LINE
  5
186
330
D4
100
AcDbEntity
  8
0
  6
Continuous
 62
     4
370
    13
100
AcDbLine
 10
-1648.751415025774
 20
-1620.303545206713
 30
0.0
 11
-1631.956840119842
 21
-1603.508970300781
 31
0.0
  0
LINE
  5
187
330
D4
100
AcDbEntity
  8
0
  6
Continuous
 62
     4
370
    13
100
AcDbLine
 10
-1637.975219449814
 20
-1620.841058129738
 30
0.0
 11
-1631.956840119842
 21
-1614.822678799766
 31
0.0
  0
ENDBLK
  5
D6
330
D4
100
AcDbEntity
  8
0
100
AcDbBlockEnd
  0
BLOCK
  5
D8
330
D7
100
AcDbEntity
  8
0
100
AcDbBlockBegin
  2
DC_GROUP_SB09-1813G_3
 70
     0
 10
0.0
 20
0.0
 30
0.0
  3
DC_GROUP_SB09-1813G_3
  1

  0
LINE
  5
188
330
D7
100
AcDbEntity
  8
LAYER0004
  6
Continuous
 62
     4
370
    13
100
AcDbLine
 10
2075.539353982893
 20
-1561.609972105608
 30
0.0
 11
2169.46049669005
 21
-1435.194861245719
 31
0.0
  0
INSERT
  5
189
330
D7
100
AcDbEntity
  8
LAYER0004
 62
     4
100
AcDbBlockReference
  2
_Open30
 10
2075.539353982893
 20
-1561.609972105608
 30
0.0
 41
30.00002807615286
 42
29.99989368223643
 50
233.3891943590306
  0
LINE
  5
18A
330
D7
100
AcDbEntity
  8
LAYER0004
  6
Continuous
 62
     4
370
    13
100
AcDbLine
 10
2169.46049669005
 20
-1435.194861245719
 30
0.0
 11
2470.260496690049
 21
-1435.194861245719
 31
0.0
  0
TEXT
  5
18B
330
D7
100
AcDbEntity
  8
LAYER0004
 62
     2
100
AcDbText
 10
2185.46049669005
 20
-1419.194861245719
 30
0.0
 40
56.0
  1
水抜口バルブ
 41
0.9600000000000006
  7
dcStyle1
 72
     5
 11
2454.26049669005
 21
-1419.194861245719
 31
0.0
100
AcDbText
  0
ENDBLK
  5
D9
330
D7
100
AcDbEntity
  8
0
100
AcDbBlockEnd
  0
BLOCK
  5
DB
330
DA
100
AcDbEntity
  8
0
100
AcDbBlockBegin
  2
DC_GROUP_SB09-1813G_4
 70
     0
 10
0.0
 20
0.0
 30
0.0
  3
DC_GROUP_SB09-1813G_4
  1

  0
LINE
  5
18C
330
DA
100
AcDbEntity
  8
LAYER0004
  6
Continuous
 62
     4
370
    13
100
AcDbLine
 10
1733.843131764645
 20
-34.86211710589308
 30
0.0
 11
2137.497447181383
 21
-301.3088985358503
 31
0.0
  0
INSERT
  5
18D
330
DA
100
AcDbEntity
  8
LAYER0004
 62
     4
100
AcDbBlockReference
  2
_Open30
 10
1733.843131764645
 20
-34.86211710589308
 30
0.0
 41
30.00002807615286
 42
29.99989368223643
 50
146.5717349842231
  0
LINE
  5
18E
330
DA
100
AcDbEntity
  8
LAYER0004
  6
Continuous
 62
     4
370
    13
100
AcDbLine
 10
2137.497447181383
 20
-301.3088985358503
 30
0.0
 11
2483.097447181384
 21
-301.3088985358503
 31
0.0
  0
LINE
  5
18F
330
DA
100
AcDbEntity
  8
LAYER0004
  6
Continuous
 62
     4
370
    13
100
AcDbLine
 10
2153.497447181383
 20
-389.3088985358499
 30
0.0
 11
2483.097447181384
 21
-389.3088985358499
 31
0.0
  0
TEXT
  5
190
330
DA
100
AcDbEntity
  8
LAYER0004
 62
     2
100
AcDbText
 10
2153.497447181383
 20
-285.3088985358505
 30
0.0
 40
56.0
  1
スタッドボルト
 41
0.9560975609756095
  7
dcStyle1
 72
     5
 11
2467.097447181383
 21
-285.3088985358505
 31
0.0
100
AcDbText
  0
TEXT
  5
191
330
DA
100
AcDbEntity
  8
LAYER0004
 62
     2
100
AcDbText
 10
2153.497447181383
 20
-373.3088985358501
 30
0.0
 40
56.0
  1
（4-M16）
 41
0.8223776223776221
  7
dcStyle1
 72
     5
 11
2467.097447181383
 21
-373.3088985358501
 31
0.0
100
AcDbText
  0
ENDBLK
  5
DC
330
DA
100
AcDbEntity
  8
0
100
AcDbBlockEnd
  0
BLOCK
  5
DE
330
DD
100
AcDbEntity
  8
0
100
AcDbBlockBegin
  2
DC_GROUP_SB09-1813G_5
 70
     0
 10
0.0
 20
0.0
 30
0.0
  3
DC_GROUP_SB09-1813G_5
  1

  0
LINE
  5
192
330
DD
100
AcDbEntity
  8
LAYER0004
  6
Continuous
 62
     4
370
    13
100
AcDbLine
 10
2050.4603635419
 20
-25.27115007993451
 30
0.0
 11
2269.641637877156
 21
150.6335393795707
 31
0.0
  0
INSERT
  5
193
330
DD
100
AcDbEntity
  8
LAYER0004
 62
     4
100
AcDbBlockReference
  2
_Open30
 10
2050.4603635419
 20
-25.27115007993451
 30
0.0
 41
30.00002807615286
 42
29.99989368223643
 50
218.7489059333836
  0
LINE
  5
194
330
DD
100
AcDbEntity
  8
LAYER0004
  6
Continuous
 62
     4
370
    13
100
AcDbLine
 10
2269.641637877156
 20
150.6335393795707
 30
0.0
 11
2615.241637877156
 21
150.6335393795707
 31
0.0
  0
LINE
  5
195
330
DD
100
AcDbEntity
  8
LAYER0004
  6
Continuous
 62
     4
370
    13
100
AcDbLine
 10
2285.641637877156
 20
62.63353937957072
 30
0.0
 11
2615.241637877156
 21
62.63353937957072
 31
0.0
  0
TEXT
  5
196
330
DD
100
AcDbEntity
  8
LAYER0004
 62
     2
100
AcDbText
 10
2285.641637877156
 20
166.6335393795707
 30
0.0
 40
56.0
  1
4-φ20
 41
0.8316831683168318
  7
dcStyle1
 72
     5
 11
2509.641637877156
 21
166.6335393795707
 31
0.0
100
AcDbText
  0
TEXT
  5
197
330
DD
100
AcDbEntity
  8
LAYER0004
 62
     2
100
AcDbText
 10
2285.641637877156
 20
78.63353937957072
 30
0.0
 40
56.0
  1
（アンカ－用）
 41
0.9560975609756095
  7
dcStyle1
 72
     5
 11
2599.241637877155
 21
78.63353937957072
 31
0.0
100
AcDbText
  0
ENDBLK
  5
DF
330
DD
100
AcDbEntity
  8
0
100
AcDbBlockEnd
  0
BLOCK
  5
E2
330
E1
100
AcDbEntity
  8
0
100
AcDbBlockBegin
  2
_Open30
 70
     0
 10
0.0
 20
0.0
 30
0.0
  3
_Open30
  1

  0
LINE
  5
E4
330
E1
100
AcDbEntity
  8
0
  6
ByBlock
 62
     0
370
    -2
100
AcDbLine
 10
-1.0
 20
0.267949
 30
0.0
 11
0.0
 21
0.0
 31
0.0
  0
LINE
  5
E5
330
E1
100
AcDbEntity
  8
0
  6
ByBlock
 62
     0
370
    -2
100
AcDbLine
 10
0.0
 20
0.0
 30
0.0
 11
-1.0
 21
-0.267949
 31
0.0
  0
LINE
  5
E6
330
E1
100
AcDbEntity
  8
0
  6
ByBlock
 62
     0
370
    -2
100
AcDbLine
 10
0.0
 20
0.0
 30
0.0
 11
-1.0
 21
0.0
 31
0.0
  0
ENDBLK
  5
E3
330
E1
100
AcDbEntity
  8
0
100
AcDbBlockEnd
  0
ENDSEC
  0
SECTION
  2
ENTITIES
  0
LINE
  5
198
330
1F
100
AcDbEntity
  8
0
  6
Continuous
 62
     2
370
    13
100
AcDbLine
 10
-1547.007744367008
 20
1889.918254738377
 30
0.0
 11
1202.664869024272
 21
1889.918254738377
 31
0.0
  0
LINE
  5
199
330
1F
100
AcDbEntity
  8
0
  6
Continuous
 62
     2
370
    13
100
AcDbLine
 10
1202.664869024272
 20
1889.918254738377
 30
0.0
 11
1202.664869024272
 21
1524.439807664676
 31
0.0
  0
LINE
  5
19A
330
1F
100
AcDbEntity
  8
0
  6
Continuous
 62
     2
370
    13
100
AcDbLine
 10
1202.664869024272
 20
1524.439807664676
 30
0.0
 11
-1547.007744367008
 21
1524.439807664676
 31
0.0
  0
LINE
  5
19B
330
1F
100
AcDbEntity
  8
0
  6
Continuous
 62
     2
370
    13
100
AcDbLine
 10
-1547.007744367008
 20
1524.439807664676
 30
0.0
 11
-1547.007744367008
 21
1889.918254738377
 31
0.0
  0
LINE
  5
19C
330
1F
100
AcDbEntity
  8
0
  6
Continuous
 62
     2
370
    13
100
AcDbLine
 10
-2598.857223760668
 20
-1574.029471306051
 30
0.0
 11
-2622.61914375979
 21
-1514.62467130601
 31
0.0
  0
LINE
  5
19D
330
1F
100
AcDbEntity
  8
0
  6
Continuous
 62
     2
370
    13
100
AcDbLine
 10
-2598.857223760668
 20
-1574.029471306051
 30
0.0
 11
-2622.61914375979
 21
-1633.43427130572
 31
0.0
  0
LINE
  5
19E
330
1F
100
AcDbEntity
  8
0
  6
Continuous
 62
     2
370
    13
100
AcDbLine
 10
-2693.904903760138
 20
-1514.62467130601
 30
0.0
 11
-2717.666823760751
 21
-1574.029471306051
 31
0.0
  0
LINE
  5
19F
330
1F
100
AcDbEntity
  8
0
  6
Continuous
 62
     2
370
    13
100
AcDbLine
 10
-2693.904903760138
 20
-1633.43427130572
 30
0.0
 11
-2717.666823760751
 21
-1574.029471306051
 31
0.0
  0
LINE
  5
1A0
330
1F
100
AcDbEntity
  8
0
  6
Continuous
 62
     2
370
    13
100
AcDbLine
 10
-2622.61914375979
 20
-1514.62467130601
 30
0.0
 11
-2639.219239697936
 21
-1556.124911156964
 31
0.0
  0
LINE
  5
1A1
330
1F
100
AcDbEntity
  8
0
  6
Continuous
 62
     2
370
    13
100
AcDbLine
 10
-2622.61914375979
 20
-1633.43427130572
 30
0.0
 11
-2639.219239697936
 21
-1591.934031456258
 31
0.0
  0
LINE
  5
1A2
330
1F
100
AcDbEntity
  8
0
  6
Continuous
 62
     2
370
    13
100
AcDbLine
 10
-2677.304807817522
 20
-1591.934031456258
 30
0.0
 11
-2693.904903760138
 21
-1633.43427130572
 31
0.0
  0
LINE
  5
1A3
330
1F
100
AcDbEntity
  8
0
  6
Continuous
 62
     2
370
    13
100
AcDbLine
 10
-2677.304807817522
 20
-1556.124911156964
 30
0.0
 11
-2693.904903760138
 21
-1514.62467130601
 31
0.0
  0
LINE
  5
1A4
330
1F
100
AcDbEntity
  8
0
  6
Continuous
 62
     2
370
    13
100
AcDbLine
 10
-1671.803858255927
 20
-1526.959296696183
 30
0.0
 11
-1679.208542361441
 21
-1526.959296696183
 31
0.0
  0
LINE
  5
1A5
330
1F
100
AcDbEntity
  8
0
  6
Continuous
 62
     2
370
    13
100
AcDbLine
 10
-1673.981358660343
 20
-1540.288238550643
 30
0.0
 11
-1671.803858255927
 21
-1526.959296696183
 31
0.0
  0
LINE
  5
1A6
330
1F
100
AcDbEntity
  8
0
  6
Continuous
 62
     2
370
    13
100
AcDbLine
 10
-1681.386042764369
 20
-1540.288238550643
 30
0.0
 11
-1673.981358660343
 21
-1540.288238550643
 31
0.0
  0
LINE
  5
1A7
330
1F
100
AcDbEntity
  8
0
  6
Continuous
 62
     2
370
    13
100
AcDbLine
 10
-1679.208542361441
 20
-1526.959296696183
 30
0.0
 11
-1681.386042764369
 21
-1540.288238550643
 31
0.0
  0
LINE
  5
1A8
330
1F
100
AcDbEntity
  8
0
  6
Continuous
 62
     2
370
    13
100
AcDbLine
 10
-1686.613226465468
 20
-1526.959296696183
 30
0.0
 11
-1694.017910570982
 21
-1526.959296696183
 31
0.0
  0
LINE
  5
1A9
330
1F
100
AcDbEntity
  8
0
  6
Continuous
 62
     2
370
    13
100
AcDbLine
 10
-1688.790726865415
 20
-1540.288238550643
 30
0.0
 11
-1686.613226465468
 21
-1526.959296696183
 31
0.0
  0
LINE
  5
1AA
330
1F
100
AcDbEntity
  8
0
  6
Continuous
 62
     2
370
    13
100
AcDbLine
 10
-1696.195410969439
 20
-1540.288238550643
 30
0.0
 11
-1688.790726865415
 21
-1540.288238550643
 31
0.0
  0
LINE
  5
1AB
330
1F
100
AcDbEntity
  8
0
  6
Continuous
 62
     2
370
    13
100
AcDbLine
 10
-1694.017910570982
 20
-1526.959296696183
 30
0.0
 11
-1696.195410969439
 21
-1540.288238550643
 31
0.0
  0
LINE
  5
1AC
330
1F
100
AcDbEntity
  8
0
  6
Continuous
 62
     2
370
    13
100
AcDbLine
 10
-1521.426037804368
 20
-1545.65449832521
 30
0.0
 11
-1492.494829639378
 21
-1545.65449832521
 31
0.0
  0
LINE
  5
1AD
330
1F
100
AcDbEntity
  8
0
  6
Continuous
 62
     2
370
    13
100
AcDbLine
 10
-1540.435356090549
 20
-1545.65449832521
 30
0.0
 11
-1554.124495255533
 21
-1620.841058129738
 31
0.0
  0
LINE
  5
1AE
330
1F
100
AcDbEntity
  8
0
  6
Continuous
 62
     2
370
    13
100
AcDbLine
 10
-1521.426037804368
 20
-1545.65449832521
 30
0.0
 11
-1535.115176967862
 21
-1620.841058129738
 31
0.0
  0
LINE
  5
1AF
330
1F
100
AcDbEntity
  8
0
  6
Continuous
 62
     2
370
    13
100
AcDbLine
 10
-1519.362767141643
 20
-1534.32214052185
 30
0.0
 11
-1466.966740068379
 21
-1534.32214052185
 31
0.0
  0
LINE
  5
1B0
330
1F
100
AcDbEntity
  8
0
  6
Continuous
 62
     2
370
    13
100
AcDbLine
 10
-1466.966740068379
 20
-1534.32214052185
 30
0.0
 11
-1475.599675070826
 21
-1561.985846235525
 31
0.0
  0
LINE
  5
1B1
330
1F
100
AcDbEntity
  8
0
  6
Continuous
 62
     2
370
    13
100
AcDbLine
 10
-1631.956840119842
 20
-1569.023892017748
 30
0.0
 11
-1624.21578315604
 21
-1569.023892017748
 31
0.0
  0
LINE
  5
1B2
330
1F
100
AcDbEntity
  8
0
  6
Continuous
 62
     2
370
    13
100
AcDbLine
 10
-1571.969658436957
 20
-1517.329500990655
 30
0.0
 11
-1603.57579003233
 21
-1558.552537932914
 31
0.0
  0
LINE
  5
1B3
330
1F
100
AcDbEntity
  8
0
  6
Continuous
 62
     2
370
    13
100
AcDbLine
 10
-1731.419740265193
 20
-1558.332050089832
 30
0.0
 11
-1726.437586865906
 21
-1536.094057656373
 31
0.0
  0
LINE
  5
1B4
330
1F
100
AcDbEntity
  8
0
  6
Continuous
 62
     2
370
    13
100
AcDbLine
 10
-1767.21299347091
 20
-1558.332050089832
 30
0.0
 11
-1731.419740265193
 21
-1558.332050089832
 31
0.0
  0
LINE
  5
1B5
330
1F
100
AcDbEntity
  8
0
  6
Continuous
 62
     2
370
    13
100
AcDbLine
 10
-1733.480540832463
 20
-1567.530495778019
 30
0.0
 11
-1736.673458258394
 21
-1581.782179294821
 31
0.0
  0
LINE
  5
1B6
330
1F
100
AcDbEntity
  8
0
  6
Continuous
 62
     2
370
    13
100
AcDbLine
 10
-1768.965892350259
 20
-1567.530495778019
 30
0.0
 11
-1733.480540832463
 21
-1567.530495778019
 31
0.0
  0
LINE
  5
1B7
330
1F
100
AcDbEntity
  8
0
  6
Continuous
 62
     2
370
    13
100
AcDbLine
 10
-1767.21299347091
 20
-1558.332050089832
 30
0.0
 11
-1768.965892350259
 21
-1567.530495778019
 31
0.0
  0
LINE
  5
1B8
330
1F
100
AcDbEntity
  8
0
  6
Continuous
 62
     2
370
    13
100
AcDbLine
 10
-1710.542319811466
 20
-1526.959296696183
 30
0.0
 11
-1724.565486800256
 21
-1590.916940254639
 31
0.0
  0
LINE
  5
1B9
330
1F
100
AcDbEntity
  8
0
  6
Continuous
 62
     2
370
    13
100
AcDbLine
 10
-1764.336250596824
 20
-1536.094057656373
 30
0.0
 11
-1772.273899863246
 21
-1556.02159773625
 31
0.0
  0
LINE
  5
1BA
330
1F
100
AcDbEntity
  8
0
  6
Continuous
 62
     2
370
    13
100
AcDbLine
 10
-1774.463517224374
 20
-1526.959296696183
 30
0.0
 11
-1782.401166492286
 21
-1546.886836774568
 31
0.0
  0
LINE
  5
1BB
330
1F
100
AcDbEntity
  8
0
  6
Continuous
 62
     2
370
    13
100
AcDbLine
 10
-1802.442040925804
 20
-1567.530495778019
 30
0.0
 11
-1789.246507088426
 21
-1567.530495778019
 31
0.0
  0
LINE
  5
1BC
330
1F
100
AcDbEntity
  8
0
  6
Continuous
 62
     2
370
    13
100
AcDbLine
 10
-1802.442040925804
 20
-1558.395734817829
 30
0.0
 11
-1799.373773718956
 21
-1558.395734817829
 31
0.0
  0
LINE
  5
1BD
330
1F
100
AcDbEntity
  8
0
  6
Continuous
 62
     2
370
    13
100
AcDbLine
 10
-1802.442040925804
 20
-1558.395734817829
 30
0.0
 11
-1802.442040925804
 21
-1567.530495778019
 31
0.0
  0
LINE
  5
1BE
330
1F
100
AcDbEntity
  8
0
  6
Continuous
 62
     2
370
    13
100
AcDbLine
 10
-2016.306068965378
 20
-1553.239205253045
 30
0.0
 11
-2019.331560054007
 21
-1579.880335118543
 31
0.0
  0
LINE
  5
1BF
330
1F
100
AcDbEntity
  8
0
  6
Continuous
 62
     2
370
    13
100
AcDbLine
 10
-2000.13425802547
 20
-1553.239205253045
 30
0.0
 11
-1988.248034493211
 21
-1553.239205253045
 31
0.0
  0
LINE
  5
1C0
330
1F
100
AcDbEntity
  8
0
  6
Continuous
 62
     2
370
    13
100
AcDbLine
 10
-2000.13425802547
 20
-1553.239205253045
 30
0.0
 11
-2004.197135221544
 21
-1589.015096080224
 31
0.0
  0
LINE
  5
1C1
330
1F
100
AcDbEntity
  8
0
  6
Continuous
 62
     2
370
    13
100
AcDbLine
 10
-1999.096871925478
 20
-1544.104444293226
 30
0.0
 11
-1988.248034493211
 21
-1544.104444293226
 31
0.0
  0
LINE
  5
1C2
330
1F
100
AcDbEntity
  8
0
  6
Continuous
 62
     2
370
    13
100
AcDbLine
 10
-2043.297931496385
 20
-1553.239205253045
 30
0.0
 11
-2046.037875140789
 21
-1577.343036715608
 31
0.0
  0
LINE
  5
1C3
330
1F
100
AcDbEntity
  8
0
  6
Continuous
 62
     2
370
    13
100
AcDbLine
 10
-2043.297931496385
 20
-1553.239205253045
 30
0.0
 11
-2016.306068965378
 21
-1553.239205253045
 31
0.0
  0
LINE
  5
1C4
330
1F
100
AcDbEntity
  8
0
  6
Continuous
 62
     2
370
    13
100
AcDbLine
 10
-2059.465868965867
 20
-1553.239205253045
 30
0.0
 11
-2062.203212597552
 21
-1577.343036715608
 31
0.0
  0
LINE
  5
1C5
330
1F
100
AcDbEntity
  8
0
  6
Continuous
 62
     2
370
    13
100
AcDbLine
 10
-2042.259560055616
 20
-1544.104444293226
 30
0.0
 11
-2015.268682862404
 21
-1544.104444293226
 31
0.0
  0
LINE
  5
1C6
330
1F
100
AcDbEntity
  8
0
  6
Continuous
 62
     2
370
    13
100
AcDbLine
 10
-2076.48432616401
 20
-1553.239205253045
 30
0.0
 11
-2059.465868965867
 21
-1553.239205253045
 31
0.0
  0
LINE
  5
1C7
330
1F
100
AcDbEntity
  8
0
  6
Continuous
 62
     2
370
    13
100
AcDbLine
 10
-1516.26893484253
 20
-1517.329500990655
 30
0.0
 11
-1519.362767141643
 21
-1534.32214052185
 31
0.0
  0
LINE
  5
1C8
330
1F
100
AcDbEntity
  8
0
  6
Continuous
 62
     2
370
    13
100
AcDbLine
 10
-1535.27825312573
 20
-1517.329500990655
 30
0.0
 11
-1538.372085426333
 21
-1534.32214052185
 31
0.0
  0
LINE
  5
1C9
330
1F
100
AcDbEntity
  8
0
  6
Continuous
 62
     2
370
    13
100
AcDbLine
 10
-1554.124495255533
 20
-1620.841058129738
 30
0.0
 11
-1535.115176967862
 21
-1620.841058129738
 31
0.0
  0
LINE
  5
1CA
330
1F
100
AcDbEntity
  8
0
  6
Continuous
 62
     2
370
    13
100
AcDbLine
 10
-1535.27825312573
 20
-1517.329500990655
 30
0.0
 11
-1516.26893484253
 21
-1517.329500990655
 31
0.0
  0
LINE
  5
1CB
330
1F
100
AcDbEntity
  8
0
  6
Continuous
 62
     2
370
    13
100
AcDbLine
 10
-1510.801550887111
 20
-1570.103879718776
 30
0.0
 11
-1510.801550887111
 21
-1582.509138136279
 31
0.0
  0
LINE
  5
1CC
330
1F
100
AcDbEntity
  8
0
  6
Continuous
 62
     2
370
    13
100
AcDbLine
 10
-1510.801550887111
 20
-1582.509138136279
 30
0.0
 11
-1503.503739821496
 21
-1582.509138136279
 31
0.0
  0
LINE
  5
1CD
330
1F
100
AcDbEntity
  8
0
  6
Continuous
 62
     2
370
    13
100
AcDbLine
 10
-1492.494829639378
 20
-1545.65449832521
 30
0.0
 11
-1496.829226469579
 21
-1559.776668222543
 31
0.0
  0
LINE
  5
1CE
330
1F
100
AcDbEntity
  8
0
  6
Continuous
 62
     2
370
    13
100
AcDbLine
 10
-1555.931129931989
 20
-1545.65449832521
 30
0.0
 11
-1540.435356090549
 21
-1545.65449832521
 31
0.0
  0
LINE
  5
1CF
330
1F
100
AcDbEntity
  8
0
  6
Continuous
 62
     2
370
    13
100
AcDbLine
 10
-1555.931129931989
 20
-1534.32214052185
 30
0.0
 11
-1555.931129931989
 21
-1545.65449832521
 31
0.0
  0
LINE
  5
1D0
330
1F
100
AcDbEntity
  8
0
  6
Continuous
 62
     2
370
    13
100
AcDbLine
 10
-1555.931129931989
 20
-1534.32214052185
 30
0.0
 11
-1538.372085426333
 21
-1534.32214052185
 31
0.0
  0
LINE
  5
1D1
330
1F
100
AcDbEntity
  8
0
  6
Continuous
 62
     2
370
    13
100
AcDbLine
 10
-1648.751415025773
 20
-1620.841058129738
 30
0.0
 11
-1631.956840119842
 21
-1620.841058129738
 31
0.0
  0
LINE
  5
1D2
330
1F
100
AcDbEntity
  8
0
  6
Continuous
 62
     2
370
    13
100
AcDbLine
 10
-1648.751415025773
 20
-1569.023892017748
 30
0.0
 11
-1648.751415025773
 21
-1620.841058129738
 31
0.0
  0
LINE
  5
1D3
330
1F
100
AcDbEntity
  8
0
  6
Continuous
 62
     2
370
    13
100
AcDbLine
 10
-1631.956840119842
 20
-1569.023892017748
 30
0.0
 11
-1631.956840119842
 21
-1620.841058129738
 31
0.0
  0
LINE
  5
1D4
330
1F
100
AcDbEntity
  8
0
  6
Continuous
 62
     2
370
    13
100
AcDbLine
 10
-1668.351474317494
 20
-1569.023892017748
 30
0.0
 11
-1648.751415025773
 21
-1569.023892017748
 31
0.0
  0
LINE
  5
1D5
330
1F
100
AcDbEntity
  8
0
  6
Continuous
 62
     2
370
    13
100
AcDbLine
 10
-1668.351474317494
 20
-1557.888058265965
 30
0.0
 11
-1668.351474317494
 21
-1569.023892017748
 31
0.0
  0
LINE
  5
1D6
330
1F
100
AcDbEntity
  8
0
  6
Continuous
 62
     2
370
    13
100
AcDbLine
 10
-1635.620789129618
 20
-1557.888058265965
 30
0.0
 11
-1668.351474317494
 21
-1557.888058265965
 31
0.0
  0
LINE
  5
1D7
330
1F
100
AcDbEntity
  8
0
  6
Continuous
 62
     2
370
    13
100
AcDbLine
 10
-1591.778566643181
 20
-1517.329500990655
 30
0.0
 11
-1615.363282405916
 21
-1547.925889009904
 31
0.0
  0
LINE
  5
1D8
330
1F
100
AcDbEntity
  8
0
  6
Continuous
 62
     2
370
    13
100
AcDbLine
 10
-1591.778566643181
 20
-1517.329500990655
 30
0.0
 11
-1571.969658436957
 21
-1517.329500990655
 31
0.0
  0
LINE
  5
1D9
330
1F
100
AcDbEntity
  8
0
  6
Continuous
 62
     2
370
    13
100
AcDbLine
 10
-1731.027121689501
 20
-1526.959296696183
 30
0.0
 11
-1710.542319811466
 21
-1526.959296696183
 31
0.0
  0
LINE
  5
1DA
330
1F
100
AcDbEntity
  8
0
  6
Continuous
 62
     2
370
    13
100
AcDbLine
 10
-1803.951564535084
 20
-1602.571536208239
 30
0.0
 11
-1803.951564535084
 21
-1611.706297168429
 31
0.0
  0
LINE
  5
1DB
330
1F
100
AcDbEntity
  8
0
  6
Continuous
 62
     2
370
    13
100
AcDbLine
 10
-1803.951564535084
 20
-1611.706297168429
 30
0.0
 11
-1749.690676398162
 21
-1611.706297168429
 31
0.0
  0
LINE
  5
1DC
330
1F
100
AcDbEntity
  8
0
  6
Continuous
 62
     2
370
    13
100
AcDbLine
 10
-1803.951564535084
 20
-1602.571536208239
 30
0.0
 11
-1761.798647853319
 21
-1602.571536208239
 31
0.0
  0
LINE
  5
1DD
330
1F
100
AcDbEntity
  8
0
  6
Continuous
 62
     2
370
    13
100
AcDbLine
 10
-1764.336250596824
 20
-1536.094057656373
 30
0.0
 11
-1726.437586865906
 21
-1536.094057656373
 31
0.0
  0
LINE
  5
1DE
330
1F
100
AcDbEntity
  8
0
  6
Continuous
 62
     2
370
    13
100
AcDbLine
 10
-1774.463517224374
 20
-1526.959296696183
 30
0.0
 11
-1731.027121689501
 21
-1526.959296696183
 31
0.0
  0
LINE
  5
1DF
330
1F
100
AcDbEntity
  8
0
  6
Continuous
 62
     2
370
    13
100
AcDbLine
 10
-1839.416991260233
 20
-1531.383567379336
 30
0.0
 11
-1853.578671755973
 21
-1591.565718552392
 31
0.0
  0
LINE
  5
1E0
330
1F
100
AcDbEntity
  8
0
  6
Continuous
 62
     2
370
    13
100
AcDbLine
 10
-1848.765384299639
 20
-1531.383567379336
 30
0.0
 11
-1858.135948521975
 21
-1569.54088554896
 31
0.0
  0
LINE
  5
1E1
330
1F
100
AcDbEntity
  8
0
  6
Continuous
 62
     2
370
    13
100
AcDbLine
 10
-1848.765384299639
 20
-1531.383567379336
 30
0.0
 11
-1839.416991260233
 21
-1531.383567379336
 31
0.0
  0
LINE
  5
1E2
330
1F
100
AcDbEntity
  8
0
  6
Continuous
 62
     2
370
    13
100
AcDbLine
 10
-1953.252422517124
 20
-1611.706297168429
 30
0.0
 11
-1878.571502169552
 21
-1611.706297168429
 31
0.0
  0
LINE
  5
1E3
330
1F
100
AcDbEntity
  8
0
  6
Continuous
 62
     2
370
    13
100
AcDbLine
 10
-1951.242267115
 20
-1592.558689683597
 30
0.0
 11
-1886.699183280352
 21
-1592.558689683597
 31
0.0
  0
LINE
  5
1E4
330
1F
100
AcDbEntity
  8
0
  6
Continuous
 62
     2
370
    13
100
AcDbLine
 10
-1951.242267115
 20
-1592.558689683597
 30
0.0
 11
-1953.252422517124
 21
-1611.706297168429
 31
0.0
  0
LINE
  5
1E5
330
1F
100
AcDbEntity
  8
0
  6
Continuous
 62
     2
370
    13
100
AcDbLine
 10
-1938.678795845392
 20
-1539.008380560125
 30
0.0
 11
-1878.431889767532
 21
-1539.008380560125
 31
0.0
  0
LINE
  5
1E6
330
1F
100
AcDbEntity
  8
0
  6
Continuous
 62
     2
370
    13
100
AcDbLine
 10
-1878.431889767532
 20
-1526.959296696183
 30
0.0
 11
-1878.431889767532
 21
-1539.008380560125
 31
0.0
  0
LINE
  5
1E7
330
1F
100
AcDbEntity
  8
0
  6
Continuous
 62
     2
370
    13
100
AcDbLine
 10
-1938.678795845392
 20
-1526.959296696183
 30
0.0
 11
-1878.431889767532
 21
-1526.959296696183
 31
0.0
  0
LINE
  5
1E8
330
1F
100
AcDbEntity
  8
0
  6
Continuous
 62
     2
370
    13
100
AcDbLine
 10
-1938.678795845392
 20
-1526.959296696183
 30
0.0
 11
-1938.678795845392
 21
-1539.008380560125
 31
0.0
  0
LINE
  5
1E9
330
1F
100
AcDbEntity
  8
0
  6
Continuous
 62
     2
370
    13
100
AcDbLine
 10
-1988.248034493211
 20
-1553.239205253045
 30
0.0
 11
-1988.248034493211
 21
-1544.104444293226
 31
0.0
  0
LINE
  5
1EA
330
1F
100
AcDbEntity
  8
0
  6
Continuous
 62
     2
370
    13
100
AcDbLine
 10
-2078.558097587112
 20
-1602.571536208239
 30
0.0
 11
-2078.558097587112
 21
-1611.706297168429
 31
0.0
  0
LINE
  5
1EB
330
1F
100
AcDbEntity
  8
0
  6
Continuous
 62
     2
370
    13
100
AcDbLine
 10
-2012.227995295409
 20
-1526.959296696183
 30
0.0
 11
-2015.268682862404
 21
-1544.104444293226
 31
0.0
  0
LINE
  5
1EC
330
1F
100
AcDbEntity
  8
0
  6
Continuous
 62
     2
370
    13
100
AcDbLine
 10
-1996.056184358481
 20
-1526.959296696183
 30
0.0
 11
-1999.096871925478
 21
-1544.104444293226
 31
0.0
  0
LINE
  5
1ED
330
1F
100
AcDbEntity
  8
0
  6
Continuous
 62
     2
370
    13
100
AcDbLine
 10
-1996.056184358481
 20
-1526.959296696183
 30
0.0
 11
-2012.227995295409
 21
-1526.959296696183
 31
0.0
  0
LINE
  5
1EE
330
1F
100
AcDbEntity
  8
0
  6
Continuous
 62
     2
370
    13
100
AcDbLine
 10
-2078.558097587112
 20
-1611.706297168429
 30
0.0
 11
-2029.611109740618
 21
-1611.706297168429
 31
0.0
  0
LINE
  5
1EF
330
1F
100
AcDbEntity
  8
0
  6
Continuous
 62
     2
370
    13
100
AcDbLine
 10
-2078.558097587112
 20
-1602.571536208239
 30
0.0
 11
-2044.745534577552
 21
-1602.571536208239
 31
0.0
  0
LINE
  5
1F0
330
1F
100
AcDbEntity
  8
0
  6
Continuous
 62
     2
370
    13
100
AcDbLine
 10
-2039.215984358969
 20
-1526.959296696183
 30
0.0
 11
-2042.259560055616
 21
-1544.104444293226
 31
0.0
  0
LINE
  5
1F1
330
1F
100
AcDbEntity
  8
0
  6
Continuous
 62
     2
370
    13
100
AcDbLine
 10
-2055.387795292917
 20
-1526.959296696183
 30
0.0
 11
-2039.215984358969
 21
-1526.959296696183
 31
0.0
  0
LINE
  5
1F2
330
1F
100
AcDbEntity
  8
0
  6
Continuous
 62
     2
370
    13
100
AcDbLine
 10
-2062.203212597552
 20
-1577.343036715608
 30
0.0
 11
-2046.037875140789
 21
-1577.343036715608
 31
0.0
  0
LINE
  5
1F3
330
1F
100
AcDbEntity
  8
0
  6
Continuous
 62
     2
370
    13
100
AcDbLine
 10
-2055.387795292917
 20
-1526.959296696183
 30
0.0
 11
-2058.428482861404
 21
-1544.104444293226
 31
0.0
  0
LINE
  5
1F4
330
1F
100
AcDbEntity
  8
0
  6
Continuous
 62
     2
370
    13
100
AcDbLine
 10
-2076.48432616401
 20
-1544.104444293226
 30
0.0
 11
-2076.48432616401
 21
-1553.239205253045
 31
0.0
  0
LINE
  5
1F5
330
1F
100
AcDbEntity
  8
0
  6
Continuous
 62
     2
370
    13
100
AcDbLine
 10
-2076.48432616401
 20
-1544.104444293226
 30
0.0
 11
-2058.428482861404
 21
-1544.104444293226
 31
0.0
  0
LINE
  5
1F6
330
1F
100
AcDbEntity
  8
0
  6
Continuous
 62
     2
370
    13
100
AcDbLine
 10
-2750.007017087522
 20
-782.8082148212148
 30
0.0
 11
-637.3887610759184
 21
-782.8082148212148
 31
0.0
  0
LINE
  5
1F7
330
1F
100
AcDbEntity
  8
0
  6
Continuous
 62
     2
370
    13
100
AcDbLine
 10
-2313.931067551258
 20
-1225.467622419369
 30
0.0
 11
-2313.931067551258
 21
870.8872188110217
 31
0.0
  0
LINE
  5
1F8
330
1F
100
AcDbEntity
  8
0
  6
Continuous
 62
     2
370
    13
100
AcDbLine
 10
-2750.007017087522
 20
870.8872188110217
 30
0.0
 11
-637.3887610759184
 21
870.8872188110217
 31
0.0
  0
LINE
  5
1F9
330
1F
100
AcDbEntity
  8
0
  6
Continuous
 62
     2
370
    13
100
AcDbLine
 10
-2750.007017087522
 20
674.9193885725304
 30
0.0
 11
-637.3887610759184
 21
674.9193885725304
 31
0.0
  0
LINE
  5
1FA
330
1F
100
AcDbEntity
  8
0
  6
Continuous
 62
     2
370
    13
100
AcDbLine
 10
-2750.007017087522
 20
376.6453031741395
 30
0.0
 11
-637.3887610759184
 21
376.6453031741395
 31
0.0
  0
LINE
  5
1FB
330
1F
100
AcDbEntity
  8
0
  6
Continuous
 62
     2
370
    13
100
AcDbLine
 10
-2750.007017087522
 20
72.16504721570163
 30
0.0
 11
-637.3887610759184
 21
72.16504721570163
 31
0.0
  0
LINE
  5
1FC
330
1F
100
AcDbEntity
  8
0
  6
Continuous
 62
     2
370
    13
100
AcDbLine
 10
-2750.007017087522
 20
-105.4909657159674
 30
0.0
 11
-637.3887610759184
 21
-105.4909657159674
 31
0.0
  0
LINE
  5
1FD
330
1F
100
AcDbEntity
  8
0
  6
Continuous
 62
     2
370
    13
100
AcDbLine
 10
-2750.007017087522
 20
-1225.467622419369
 30
0.0
 11
-637.3887610759184
 21
-1225.467622419369
 31
0.0
  0
LINE
  5
1FE
330
1F
100
AcDbEntity
  8
0
  6
Continuous
 62
     2
370
    13
100
AcDbLine
 10
-2750.007017087522
 20
-1225.467622419369
 30
0.0
 11
-2750.007017087522
 21
870.8872188110217
 31
0.0
  0
LINE
  5
1FF
330
1F
100
AcDbEntity
  8
0
  6
Continuous
 62
     2
370
    13
100
AcDbLine
 10
-637.3887610759185
 20
870.8872188110217
 30
0.0
 11
-637.3887610759185
 21
-1224.927030017893
 31
0.0
  0
LINE
  5
200
330
1F
100
AcDbEntity
  8
0
  6
Continuous
 62
     2
370
    13
100
AcDbLine
 10
-2584.036957534734
 20
376.6453031741395
 30
0.0
 11
-2584.036957534734
 21
72.16504721570163
 31
0.0
  0
LINE
  5
201
330
1F
100
AcDbEntity
  8
0
  6
Continuous
 62
     2
370
    13
100
AcDbLine
 10
-3153.392654807451
 20
-2177.77904733486
 30
0.0
 11
-3153.392654807451
 21
2174.220952665139
 31
0.0
  0
LINE
  5
202
330
1F
100
AcDbEntity
  8
0
  6
Continuous
 62
     2
370
    13
100
AcDbLine
 10
2990.607345192549
 20
-2177.77904733486
 30
0.0
 11
-3153.392654807451
 21
-2177.77904733486
 31
0.0
  0
LINE
  5
203
330
1F
100
AcDbEntity
  8
0
  6
Continuous
 62
     2
370
    13
100
AcDbLine
 10
2990.607345192549
 20
2174.220952665139
 30
0.0
 11
2990.607345192549
 21
-2177.77904733486
 31
0.0
  0
LINE
  5
204
330
1F
100
AcDbEntity
  8
0
  6
Continuous
 62
     2
370
    13
100
AcDbLine
 10
-3153.392654807451
 20
2174.220952665139
 30
0.0
 11
2990.607345192549
 21
2174.220952665139
 31
0.0
  0
ARC
  5
205
330
1F
100
AcDbEntity
  8
0
  6
Continuous
 62
     2
370
    13
100
AcDbCircle
 10
-2658.262023761454
 20
-1574.029471306051
 30
0.0
 40
26.13811200186576
100
AcDbArc
 50
43.23546702277982
 51
136.7645329660328
  0
ARC
  5
206
330
1F
100
AcDbEntity
  8
0
  6
Continuous
 62
     2
370
    13
100
AcDbCircle
 10
-2658.262023761454
 20
-1574.029471306051
 30
0.0
 40
26.13811199720398
100
AcDbArc
 50
223.2354670357537
 51
316.7645329754336
  0
CIRCLE
  5
207
330
1F
100
AcDbEntity
  8
0
  6
Continuous
 62
     2
370
    13
100
AcDbCircle
 10
-2658.262023761454
 20
-1574.029471306051
 30
0.0
 40
23.76191999912262
  0
ARC
  5
208
330
1F
100
AcDbEntity
  8
0
  6
Continuous
 62
     2
370
    13
100
AcDbCircle
 10
-1503.503739821496
 20
-1553.277903064261
 30
0.0
 40
29.23123507201744
100
AcDbArc
 50
270.0
 51
342.6685699110339
  0
ARC
  5
209
330
1F
100
AcDbEntity
  8
0
  6
Continuous
 62
     2
370
    13
100
AcDbCircle
 10
-2029.611109740618
 20
-1586.128966480415
 30
0.0
 40
25.57733068801426
100
AcDbArc
 50
270.0
 51
353.5209817809477
  0
ARC
  5
20A
330
1F
100
AcDbEntity
  8
0
  6
Continuous
 62
     2
370
    13
100
AcDbCircle
 10
-1886.699183280352
 20
-1563.327454611581
 30
0.0
 40
29.23123507201599
100
AcDbArc
 50
270.0
 51
347.7275034287838
  0
ARC
  5
20B
330
1F
100
AcDbEntity
  8
0
  6
Continuous
 62
     2
370
    13
100
AcDbCircle
 10
-1749.690676398162
 20
-1586.128966480415
 30
0.0
 40
25.57733068801426
100
AcDbArc
 50
270.0
 51
349.2108095150592
  0
ARC
  5
20C
330
1F
100
AcDbEntity
  8
0
  6
Continuous
 62
     2
370
    13
100
AcDbCircle
 10
-1761.798647853319
 20
-1576.994205520223
 30
0.0
 40
25.57733068801572
100
AcDbArc
 50
270.0
 51
349.2108095129866
  0
ARC
  5
20D
330
1F
100
AcDbEntity
  8
0
  6
Continuous
 62
     2
370
    13
100
AcDbCircle
 10
-1789.246507088426
 20
-1549.260973856148
 30
0.0
 40
18.269521921872
100
AcDbArc
 50
270.0
 51
338.2813419518194
  0
ARC
  5
20E
330
1F
100
AcDbEntity
  8
0
  6
Continuous
 62
     2
370
    13
100
AcDbCircle
 10
-1799.373773718956
 20
-1540.126212897818
 30
0.0
 40
18.26952192001118
100
AcDbArc
 50
270.0
 51
338.2813419633148
  0
ARC
  5
20F
330
1F
100
AcDbEntity
  8
0
  6
Continuous
 62
     2
370
    13
100
AcDbCircle
 10
-1878.571502169552
 20
-1586.128966480415
 30
0.0
 40
25.57733068801426
100
AcDbArc
 50
270.0
 51
347.7275034249068
  0
ARC
  5
210
330
1F
100
AcDbEntity
  8
0
  6
Continuous
 62
     2
370
    13
100
AcDbCircle
 10
-2044.745534577552
 20
-1576.994205520223
 30
0.0
 40
25.57733068801572
100
AcDbArc
 50
270.0
 51
353.5209817853935
  0
ARC
  5
211
330
1F
100
AcDbEntity
  8
0
  6
Continuous
 62
     2
370
    13
100
AcDbCircle
 10
-1510.801550887111
 20
-1555.488262182768
 30
0.0
 40
14.615617536008
100
AcDbArc
 50
270.0
 51
342.9376269349864
  0
ARC
  5
212
330
1F
100
AcDbEntity
  8
0
  6
Continuous
 62
     2
370
    13
100
AcDbCircle
 10
-1624.21578315604
 20
-1543.446561331596
 30
0.0
 40
25.57733068615198
100
AcDbArc
 50
270.0
 51
323.8003882654801
  0
ARC
  5
213
330
1F
100
AcDbEntity
  8
0
  6
Continuous
 62
     2
370
    13
100
AcDbCircle
 10
-1635.620789129618
 20
-1532.310727577951
 30
0.0
 40
25.57733068801463
100
AcDbArc
 50
270.0
 51
322.3737663629268
  0
LINE
  5
214
330
1F
100
AcDbEntity
  8
0
  6
Continuous
 62
     2
370
    13
100
AcDbLine
 10
2033.294651431139
 20
-1585.734240884544
 30
0.0
 11
2033.294651431139
 21
-1607.434240884546
 31
0.0
  0
LINE
  5
215
330
1F
100
AcDbEntity
  8
0
  6
Continuous
 62
     2
370
    13
100
AcDbLine
 10
2040.294651431139
 20
-1606.49854799259
 30
0.0
 11
2033.294651431139
 21
-1607.434240884546
 31
0.0
  0
LINE
  5
216
330
1F
100
AcDbEntity
  8
0
  6
Continuous
 62
     2
370
    13
100
AcDbLine
 10
2033.294651431139
 20
-1585.734240884544
 30
0.0
 11
2040.294651431139
 21
-1586.669933776498
 31
0.0
  0
LINE
  5
217
330
1F
100
AcDbEntity
  8
0
  6
Continuous
 62
     2
370
    13
100
AcDbLine
 10
2019.294651431139
 20
-1607.434240884546
 30
0.0
 11
2033.294651431139
 21
-1607.434240884546
 31
0.0
  0
LINE
  5
218
330
1F
100
AcDbEntity
  8
0
  6
Continuous
 62
     2
370
    13
100
AcDbLine
 10
2019.294651431139
 20
-1585.734240884544
 30
0.0
 11
2033.294651431139
 21
-1585.734240884544
 31
0.0
  0
LINE
  5
219
330
1F
100
AcDbEntity
  8
0
  6
Continuous
 62
     2
370
    13
100
AcDbLine
 10
2057.594587301789
 20
-1578.263283524068
 30
0.0
 11
2080.826062031962
 21
-1578.263283524068
 31
0.0
  0
LINE
  5
21A
330
1F
100
AcDbEntity
  8
0
  6
Continuous
 62
     2
370
    13
100
AcDbLine
 10
2149.794651431139
 20
-1556.584240884543
 30
0.0
 11
2149.794651431139
 21
-1560.584240884543
 31
0.0
  0
LINE
  5
21B
330
1F
100
AcDbEntity
  8
0
  6
Continuous
 62
     2
370
    13
100
AcDbLine
 10
2067.351177522236
 20
-1567.051889385838
 30
0.0
 11
2067.351177522236
 21
-1561.609972105608
 31
0.0
  0
LINE
  5
21C
330
1F
100
AcDbEntity
  8
0
  6
Continuous
 62
     2
370
    13
100
AcDbLine
 10
2072.238125340042
 20
-1561.609972105608
 30
0.0
 11
2072.238125340042
 21
-1567.051889385838
 31
0.0
  0
LINE
  5
21D
330
1F
100
AcDbEntity
  8
0
  6
Continuous
 62
     2
370
    13
100
AcDbLine
 10
2064.049948879387
 20
-1561.609972105608
 30
0.0
 11
2064.049948879387
 21
-1567.051889385838
 31
0.0
  0
LINE
  5
21E
330
1F
100
AcDbEntity
  8
0
  6
Continuous
 62
     2
370
    13
100
AcDbLine
 10
2066.794651431139
 20
-1558.480897753118
 30
0.0
 11
2066.794651431139
 21
-1561.609972105608
 31
0.0
  0
LINE
  5
21F
330
1F
100
AcDbEntity
  8
0
  6
Continuous
 62
     2
370
    13
100
AcDbLine
 10
2072.794651431139
 20
-1558.480897753118
 30
0.0
 11
2072.794651431139
 21
-1561.609972105608
 31
0.0
  0
LINE
  5
220
330
1F
100
AcDbEntity
  8
0
  6
Continuous
 62
     2
370
    13
100
AcDbLine
 10
2075.539353982893
 20
-1561.609972105608
 30
0.0
 11
2075.539353982893
 21
-1567.051889385838
 31
0.0
  0
LINE
  5
221
330
1F
100
AcDbEntity
  8
0
  6
Continuous
 62
     2
370
    13
100
AcDbLine
 10
2064.049948879387
 20
-1561.609972105608
 30
0.0
 11
2075.539353982893
 21
-1561.609972105608
 31
0.0
  0
LINE
  5
222
330
1F
100
AcDbEntity
  8
0
  6
Continuous
 62
     2
370
    13
100
AcDbLine
 10
2066.794651431139
 20
-1558.480897753118
 30
0.0
 11
2072.794651431139
 21
-1558.480897753118
 31
0.0
  0
LINE
  5
223
330
1F
100
AcDbEntity
  8
0
  6
Continuous
 62
     2
370
    13
100
AcDbLine
 10
2084.4993276402
 20
-1583.584240884543
 30
0.0
 11
2099.294651431139
 21
-1583.584240884543
 31
0.0
  0
LINE
  5
224
330
1F
100
AcDbEntity
  8
0
  6
Continuous
 62
     2
370
    13
100
AcDbLine
 10
2055.089975222078
 20
-1583.584240884543
 30
0.0
 11
2040.294651431139
 21
-1583.584240884543
 31
0.0
  0
LINE
  5
225
330
1F
100
AcDbEntity
  8
0
  6
Continuous
 62
     2
370
    13
100
AcDbLine
 10
2080.826062031962
 20
-1578.263283524068
 30
0.0
 11
2084.4993276402
 21
-1581.275406460527
 31
0.0
  0
LINE
  5
226
330
1F
100
AcDbEntity
  8
0
  6
Continuous
 62
     2
370
    13
100
AcDbLine
 10
2080.826062031962
 20
-1578.263283524068
 30
0.0
 11
2080.826062031962
 21
-1569.051889385838
 31
0.0
  0
LINE
  5
227
330
1F
100
AcDbEntity
  8
0
  6
Continuous
 62
     2
370
    13
100
AcDbLine
 10
2084.4993276402
 20
-1581.275406460527
 30
0.0
 11
2084.4993276402
 21
-1583.584240884543
 31
0.0
  0
LINE
  5
228
330
1F
100
AcDbEntity
  8
0
  6
Continuous
 62
     2
370
    13
100
AcDbLine
 10
2059.594587301789
 20
-1569.051889385838
 30
0.0
 11
2059.594587301789
 21
-1581.275406460527
 31
0.0
  0
LINE
  5
229
330
1F
100
AcDbEntity
  8
0
  6
Continuous
 62
     2
370
    13
100
AcDbLine
 10
2095.067952478828
 20
-1557.584240884543
 30
0.0
 11
2095.762203095175
 21
-1557.584240884543
 31
0.0
  0
LINE
  5
22A
330
1F
100
AcDbEntity
  8
0
  6
Continuous
 62
     2
370
    13
100
AcDbLine
 10
2083.073962520703
 20
-1567.051889385838
 30
0.0
 11
2095.067952478828
 21
-1557.584240884543
 31
0.0
  0
LINE
  5
22B
330
1F
100
AcDbEntity
  8
0
  6
Continuous
 62
     2
370
    13
100
AcDbLine
 10
2083.073962520703
 20
-1567.051889385838
 30
0.0
 11
2057.594587301789
 21
-1567.051889385838
 31
0.0
  0
LINE
  5
22C
330
1F
100
AcDbEntity
  8
0
  6
Continuous
 62
     2
370
    13
100
AcDbLine
 10
2095.762203095175
 20
-1559.584240884543
 30
0.0
 11
2083.768213137048
 21
-1569.051889385838
 31
0.0
  0
LINE
  5
22D
330
1F
100
AcDbEntity
  8
0
  6
Continuous
 62
     2
370
    13
100
AcDbLine
 10
2095.762203095175
 20
-1560.584240884543
 30
0.0
 11
2149.794651431139
 21
-1560.584240884543
 31
0.0
  0
LINE
  5
22E
330
1F
100
AcDbEntity
  8
0
  6
Continuous
 62
     2
370
    13
100
AcDbLine
 10
2095.762203095175
 20
-1556.584240884543
 30
0.0
 11
2149.794651431139
 21
-1556.584240884543
 31
0.0
  0
LINE
  5
22F
330
1F
100
AcDbEntity
  8
0
  6
Continuous
 62
     2
370
    13
100
AcDbLine
 10
2095.762203095175
 20
-1556.584240884543
 30
0.0
 11
2095.762203095175
 21
-1560.584240884543
 31
0.0
  0
LINE
  5
230
330
1F
100
AcDbEntity
  8
0
  6
Continuous
 62
     2
370
    13
100
AcDbLine
 10
2040.294651431139
 20
-1583.584240884543
 30
0.0
 11
2040.294651431139
 21
-1609.584240884543
 31
0.0
  0
LINE
  5
231
330
1F
100
AcDbEntity
  8
0
  6
Continuous
 62
     2
370
    13
100
AcDbLine
 10
2099.294651431139
 20
-1583.584240884543
 30
0.0
 11
2099.294651431139
 21
-1609.584240884543
 31
0.0
  0
LINE
  5
232
330
1F
100
AcDbEntity
  8
0
  6
Continuous
 62
     2
370
    13
100
AcDbLine
 10
2079.942799453984
 20
-1609.584240884543
 30
0.0
 11
2099.294651431139
 21
-1609.584240884543
 31
0.0
  0
LINE
  5
233
330
1F
100
AcDbEntity
  8
0
  6
Continuous
 62
     2
370
    13
100
AcDbLine
 10
2040.294651431139
 20
-1609.584240884543
 30
0.0
 11
2059.646503408297
 21
-1609.584240884543
 31
0.0
  0
LINE
  5
234
330
1F
100
AcDbEntity
  8
0
  6
Continuous
 62
     2
370
    13
100
AcDbLine
 10
2055.089975222078
 20
-1583.584240884543
 30
0.0
 11
2055.089975222078
 21
-1581.275406460527
 31
0.0
  0
LINE
  5
235
330
1F
100
AcDbEntity
  8
0
  6
Continuous
 62
     2
370
    13
100
AcDbLine
 10
2083.768213137048
 20
-1569.051889385838
 30
0.0
 11
2059.594587301789
 21
-1569.051889385838
 31
0.0
  0
LINE
  5
236
330
1F
100
AcDbEntity
  8
0
  6
Continuous
 62
     2
370
    13
100
AcDbLine
 10
2057.594587301789
 20
-1578.263283524068
 30
0.0
 11
2057.594587301789
 21
-1567.051889385838
 31
0.0
  0
LINE
  5
237
330
1F
100
AcDbEntity
  8
0
  6
Continuous
 62
     2
370
    13
100
AcDbLine
 10
2055.089975222078
 20
-1581.275406460527
 30
0.0
 11
2084.4993276402
 21
-1581.275406460527
 31
0.0
  0
LINE
  5
238
330
1F
100
AcDbEntity
  8
0
  6
Continuous
 62
     2
370
    13
100
AcDbLine
 10
2059.646503408297
 20
-1609.584240884543
 30
0.0
 11
2059.646503408297
 21
-1613.084240884546
 31
0.0
  0
LINE
  5
239
330
1F
100
AcDbEntity
  8
0
  6
Continuous
 62
     2
370
    13
100
AcDbLine
 10
2079.942799453984
 20
-1613.084240884543
 30
0.0
 11
2079.942799453984
 21
-1609.584240884543
 31
0.0
  0
LINE
  5
23A
330
1F
100
AcDbEntity
  8
0
  6
Continuous
 62
     2
370
    13
100
AcDbLine
 10
2059.646503408297
 20
-1613.084240884546
 30
0.0
 11
2079.942799453984
 21
-1613.084240884543
 31
0.0
  0
LINE
  5
23B
330
1F
100
AcDbEntity
  8
0
  6
Continuous
 62
     2
370
    13
100
AcDbLine
 10
2033.294651431138
 20
429.6087217993648
 30
0.0
 11
2040.294651431138
 21
430.279834163335
 31
0.0
  0
LINE
  5
23C
330
1F
100
AcDbEntity
  8
0
  6
Continuous
 62
     2
370
    13
100
AcDbLine
 10
2033.294651431138
 20
451.3087217993651
 30
0.0
 11
2040.294651431138
 21
450.556064476442
 31
0.0
  0
LINE
  5
23D
330
1F
100
AcDbEntity
  8
0
  6
Continuous
 62
     2
370
    13
100
AcDbLine
 10
2033.294651431138
 20
451.3087217993651
 30
0.0
 11
2033.294651431138
 21
429.6087217993648
 31
0.0
  0
LINE
  5
23E
330
1F
100
AcDbEntity
  8
0
  6
Continuous
 62
     2
370
    13
100
AcDbLine
 10
2019.294651431138
 20
429.6087217993648
 30
0.0
 11
2033.294651431138
 21
429.6087217993648
 31
0.0
  0
LINE
  5
23F
330
1F
100
AcDbEntity
  8
0
  6
Continuous
 62
     2
370
    13
100
AcDbLine
 10
2019.294651431138
 20
451.308721799365
 30
0.0
 11
2033.294651431138
 21
451.3087217993651
 31
0.0
  0
LINE
  5
240
330
1F
100
AcDbEntity
  8
0
  6
Continuous
 62
     2
370
    13
100
AcDbLine
 10
2040.294651431138
 20
452.8087217993647
 30
0.0
 11
2040.294651431138
 21
428.1087217993646
 31
0.0
  0
LINE
  5
241
330
1F
100
AcDbEntity
  8
0
  6
Continuous
 62
     2
370
    13
100
AcDbLine
 10
2099.294651431138
 20
448.8142064943929
 30
0.0
 11
2099.294651431138
 21
452.8087217993647
 31
0.0
  0
LINE
  5
242
330
1F
100
AcDbEntity
  8
0
  6
Continuous
 62
     2
370
    13
100
AcDbLine
 10
2083.131068268446
 20
432.1032371043368
 30
0.0
 11
2076.615209264648
 21
429.2861896710244
 31
0.0
  0
LINE
  5
243
330
1F
100
AcDbEntity
  8
0
  6
Continuous
 62
     2
370
    13
100
AcDbLine
 10
2069.794651431138
 20
429.2861896710241
 30
0.0
 11
2076.615209264648
 21
429.2861896710244
 31
0.0
  0
LINE
  5
244
330
1F
100
AcDbEntity
  8
0
  6
Continuous
 62
     2
370
    13
100
AcDbLine
 10
2083.131068268446
 20
432.1032371043368
 30
0.0
 11
2076.615209264648
 21
429.2861896710244
 31
0.0
  0
LINE
  5
245
330
1F
100
AcDbEntity
  8
0
  6
Continuous
 62
     2
370
    13
100
AcDbLine
 10
2149.794651431139
 20
432.1032371043368
 30
0.0
 11
2083.131068268446
 21
432.1032371043368
 31
0.0
  0
LINE
  5
246
330
1F
100
AcDbEntity
  8
0
  6
Continuous
 62
     2
370
    13
100
AcDbLine
 10
2149.794651431139
 20
448.8142064943929
 30
0.0
 11
2149.794651431139
 21
432.1032371043368
 31
0.0
  0
LINE
  5
247
330
1F
100
AcDbEntity
  8
0
  6
Continuous
 62
     2
370
    13
100
AcDbLine
 10
2083.131068268446
 20
448.8142064943929
 30
0.0
 11
2149.794651431139
 21
448.8142064943929
 31
0.0
  0
LINE
  5
248
330
1F
100
AcDbEntity
  8
0
  6
Continuous
 62
     2
370
    13
100
AcDbLine
 10
2076.615209264648
 20
451.6312539277054
 30
0.0
 11
2083.131068268446
 21
448.8142064943929
 31
0.0
  0
LINE
  5
249
330
1F
100
AcDbEntity
  8
0
  6
Continuous
 62
     2
370
    13
100
AcDbLine
 10
2076.615209264648
 20
451.6312539277054
 30
0.0
 11
2069.794651431138
 21
451.6312539277054
 31
0.0
  0
LINE
  5
24A
330
1F
100
AcDbEntity
  8
0
  6
Continuous
 62
     2
370
    13
100
AcDbLine
 10
2079.942799453983
 20
427.4412069661015
 30
0.0
 11
2079.942799453983
 21
428.1087217993646
 31
0.0
  0
LINE
  5
24B
330
1F
100
AcDbEntity
  8
0
  6
Continuous
 62
     2
370
    13
100
AcDbLine
 10
2078.474210054806
 20
453.8544958437218
 30
0.0
 11
2078.474210054806
 21
452.8087217993647
 31
0.0
  0
LINE
  5
24C
330
1F
100
AcDbEntity
  8
0
  6
Continuous
 62
     2
370
    13
100
AcDbLine
 10
2079.942799453983
 20
427.4412069661015
 30
0.0
 11
2079.942799453983
 21
428.1087217993646
 31
0.0
  0
LINE
  5
24D
330
1F
100
AcDbEntity
  8
0
  6
Continuous
 62
     2
370
    13
100
AcDbLine
 10
2078.474210054806
 20
453.8544958437218
 30
0.0
 11
2078.474210054806
 21
452.8087217993647
 31
0.0
  0
LINE
  5
24E
330
1F
100
AcDbEntity
  8
0
  6
Continuous
 62
     2
370
    13
100
AcDbLine
 10
2079.942799453983
 20
428.1087217993646
 30
0.0
 11
2099.294651431138
 21
428.1087217993646
 31
0.0
  0
LINE
  5
24F
330
1F
100
AcDbEntity
  8
0
  6
Continuous
 62
     2
370
    13
100
AcDbLine
 10
2078.474210054806
 20
452.8087217993647
 30
0.0
 11
2099.294651431138
 21
452.8087217993647
 31
0.0
  0
LINE
  5
250
330
1F
100
AcDbEntity
  8
0
  6
Continuous
 62
     2
370
    13
100
AcDbLine
 10
2099.294651431138
 20
428.1087217993646
 30
0.0
 11
2099.294651431138
 21
432.1032371043368
 31
0.0
  0
LINE
  5
251
330
1F
100
AcDbEntity
  8
0
  6
Continuous
 62
     2
370
    13
100
AcDbLine
 10
2059.646503408294
 20
428.1087217993646
 30
0.0
 11
2059.646503408294
 21
427.4412069661015
 31
0.0
  0
LINE
  5
252
330
1F
100
AcDbEntity
  8
0
  6
Continuous
 62
     2
370
    13
100
AcDbLine
 10
2061.115092807472
 20
452.8087217993647
 30
0.0
 11
2061.115092807472
 21
453.8544958437218
 31
0.0
  0
LINE
  5
253
330
1F
100
AcDbEntity
  8
0
  6
Continuous
 62
     2
370
    13
100
AcDbLine
 10
2061.115092807472
 20
453.8544958437218
 30
0.0
 11
2075.735011422829
 21
453.8544958437218
 31
0.0
  0
LINE
  5
254
330
1F
100
AcDbEntity
  8
0
  6
Continuous
 62
     2
370
    13
100
AcDbLine
 10
2075.735011422829
 20
453.8544958437218
 30
0.0
 11
2078.474210054806
 21
453.8544958437218
 31
0.0
  0
LINE
  5
255
330
1F
100
AcDbEntity
  8
0
  6
Continuous
 62
     2
370
    13
100
AcDbLine
 10
2059.646503408294
 20
427.4412069661015
 30
0.0
 11
2079.942799453983
 21
427.4412069661015
 31
0.0
  0
LINE
  5
256
330
1F
100
AcDbEntity
  8
0
  6
Continuous
 62
     2
370
    13
100
AcDbLine
 10
2040.294651431138
 20
428.1087217993646
 30
0.0
 11
2059.646503408294
 21
428.1087217993646
 31
0.0
  0
LINE
  5
257
330
1F
100
AcDbEntity
  8
0
  6
Continuous
 62
     2
370
    13
100
AcDbLine
 10
2040.294651431138
 20
452.8087217993647
 30
0.0
 11
2061.115092807472
 21
452.8087217993647
 31
0.0
  0
LINE
  5
258
330
1F
100
AcDbEntity
  8
0
  6
Continuous
 62
     2
370
    13
100
AcDbLine
 10
204.294651431138
 20
-1607.434240884546
 30
0.0
 11
189.294651431138
 21
-1622.434240884546
 31
0.0
  0
LINE
  5
259
330
1F
100
AcDbEntity
  8
0
  6
Continuous
 62
     2
370
    13
100
AcDbLine
 10
2019.294651431139
 20
-1112.434240884546
 30
0.0
 11
2019.294651431139
 21
-1493.286133020387
 31
0.0
  0
LINE
  5
25A
330
1F
100
AcDbEntity
  8
0
  6
Continuous
 62
     2
370
    13
100
AcDbLine
 10
204.294651431138
 20
-1607.434240884546
 30
0.0
 11
1897.292095607766
 21
-1607.434240884546
 31
0.0
  0
LINE
  5
25B
330
1F
100
AcDbEntity
  8
0
  6
Continuous
 62
     2
370
    13
100
AcDbLine
 10
239.294651431138
 20
-1602.434240884546
 30
0.0
 11
239.294651431138
 21
-1112.434240884546
 31
0.0
  0
LINE
  5
25C
330
1F
100
AcDbEntity
  8
0
  6
Continuous
 62
     2
370
    13
100
AcDbLine
 10
1989.294651431139
 20
-1112.434240884546
 30
0.0
 11
1989.294651431139
 21
-1122.434240884546
 31
0.0
  0
LINE
  5
25D
330
1F
100
AcDbEntity
  8
0
  6
Continuous
 62
     2
370
    13
100
AcDbLine
 10
239.294651431138
 20
1107.958721799365
 30
0.0
 11
2019.294651431138
 21
1107.958721799365
 31
0.0
  0
LINE
  5
25E
330
1F
100
AcDbEntity
  8
0
  6
Continuous
 62
     2
370
    13
100
AcDbLine
 10
2019.294651431138
 20
1107.958721799365
 30
0.0
 11
2019.294651431139
 21
-227.041278200635
 31
0.0
  0
LINE
  5
25F
330
1F
100
AcDbEntity
  8
0
  6
Continuous
 62
     2
370
    13
100
AcDbLine
 10
2019.294651431139
 20
-227.041278200635
 30
0.0
 11
239.294651431138
 21
-227.041278200635
 31
0.0
  0
LINE
  5
260
330
1F
100
AcDbEntity
  8
0
  6
Continuous
 62
     2
370
    13
100
AcDbLine
 10
239.294651431138
 20
-227.041278200635
 30
0.0
 11
239.294651431138
 21
1107.958721799365
 31
0.0
  0
LINE
  5
261
330
1F
100
AcDbEntity
  8
0
  6
Continuous
 62
     2
370
    13
100
AcDbLine
 10
269.294651431138
 20
1077.958721799365
 30
0.0
 11
1989.294651431138
 21
1077.958721799365
 31
0.0
  0
LINE
  5
262
330
1F
100
AcDbEntity
  8
0
  6
Continuous
 62
     2
370
    13
100
AcDbLine
 10
1989.294651431138
 20
1077.958721799365
 30
0.0
 11
1989.294651431138
 21
-197.0412782006341
 31
0.0
  0
LINE
  5
263
330
1F
100
AcDbEntity
  8
0
  6
Continuous
 62
     2
370
    13
100
AcDbLine
 10
1989.294651431138
 20
-197.0412782006341
 30
0.0
 11
269.294651431138
 21
-197.041278200635
 31
0.0
  0
LINE
  5
264
330
1F
100
AcDbEntity
  8
0
  6
Continuous
 62
     2
370
    13
100
AcDbLine
 10
269.294651431138
 20
-197.041278200635
 30
0.0
 11
269.294651431138
 21
1077.958721799365
 31
0.0
  0
LINE
  5
265
330
1F
100
AcDbEntity
  8
0
  6
Continuous
 62
     2
370
    13
100
AcDbLine
 10
484.294651431138
 20
970.4587217993651
 30
0.0
 11
484.2946514311387
 21
850.4587217993649
 31
0.0
  0
LINE
  5
266
330
1F
100
AcDbEntity
  8
0
  6
Continuous
 62
     2
370
    13
100
AcDbLine
 10
484.294651431138
 20
970.4587217993651
 30
0.0
 11
574.2946514311387
 21
970.4587217993651
 31
0.0
  0
LINE
  5
267
330
1F
100
AcDbEntity
  8
0
  6
Continuous
 62
     2
370
    13
100
AcDbLine
 10
2069.294651431138
 20
850.4587217993649
 30
0.0
 11
2069.294651431138
 21
970.4587217993653
 31
0.0
  0
LINE
  5
268
330
1F
100
AcDbEntity
  8
0
  6
Continuous
 62
     2
370
    13
100
AcDbLine
 10
2069.294651431138
 20
970.4587217993651
 30
0.0
 11
2019.294651431138
 21
970.4587217993651
 31
0.0
  0
LINE
  5
269
330
1F
100
AcDbEntity
  8
0
  6
Continuous
 62
     2
370
    13
100
AcDbLine
 10
2019.294651431138
 20
850.4587217993649
 30
0.0
 11
2069.294651431138
 21
850.4587217993649
 31
0.0
  0
LINE
  5
26A
330
1F
100
AcDbEntity
  8
0
  6
Continuous
 62
     2
370
    13
100
AcDbLine
 10
189.294651431138
 20
850.4587217993649
 30
0.0
 11
189.294651431138
 21
970.4587217993653
 31
0.0
  0
LINE
  5
26B
330
1F
100
AcDbEntity
  8
0
  6
Continuous
 62
     2
370
    13
100
AcDbLine
 10
189.294651431138
 20
970.4587217993651
 30
0.0
 11
239.294651431138
 21
970.4587217993651
 31
0.0
  0
LINE
  5
26C
330
1F
100
AcDbEntity
  8
0
  6
Continuous
 62
     2
370
    13
100
AcDbLine
 10
189.294651431138
 20
850.4587217993649
 30
0.0
 11
239.2946514311373
 21
850.4587217993649
 31
0.0
  0
LINE
  5
26D
330
1F
100
AcDbEntity
  8
0
  6
Continuous
 62
     2
370
    13
100
AcDbLine
 10
574.2946514311387
 20
850.4587217993649
 30
0.0
 11
484.2946514311387
 21
850.4587217993649
 31
0.0
  0
LINE
  5
26E
330
1F
100
AcDbEntity
  8
0
  6
Continuous
 62
     2
370
    13
100
AcDbLine
 10
574.2946514311387
 20
850.4587217993649
 30
0.0
 11
574.2946514311387
 21
970.4587217993651
 31
0.0
  0
LINE
  5
26F
330
1F
100
AcDbEntity
  8
0
  6
Continuous
 62
     2
370
    13
100
AcDbLine
 10
484.294651431138
 20
30.45872179936498
 30
0.0
 11
484.2946514311387
 21
-89.54127820063411
 31
0.0
  0
LINE
  5
270
330
1F
100
AcDbEntity
  8
0
  6
Continuous
 62
     2
370
    13
100
AcDbLine
 10
574.2946514311387
 20
-89.54127820063502
 30
0.0
 11
484.2946514311387
 21
-89.54127820063411
 31
0.0
  0
LINE
  5
271
330
1F
100
AcDbEntity
  8
0
  6
Continuous
 62
     2
370
    13
100
AcDbLine
 10
484.294651431138
 20
30.45872179936498
 30
0.0
 11
574.2946514311387
 21
30.45872179936589
 31
0.0
  0
LINE
  5
272
330
1F
100
AcDbEntity
  8
0
  6
Continuous
 62
     2
370
    13
100
AcDbLine
 10
574.2946514311387
 20
-89.54127820063502
 30
0.0
 11
574.2946514311387
 21
30.45872179936589
 31
0.0
  0
LINE
  5
273
330
1F
100
AcDbEntity
  8
0
  6
Continuous
 62
     2
370
    13
100
AcDbLine
 10
1779.294651431139
 20
850.4587217993646
 30
0.0
 11
1779.294651431139
 21
970.4587217993651
 31
0.0
  0
LINE
  5
274
330
1F
100
AcDbEntity
  8
0
  6
Continuous
 62
     2
370
    13
100
AcDbLine
 10
1679.294651431139
 20
970.4587217993651
 30
0.0
 11
1779.294651431139
 21
970.4587217993651
 31
0.0
  0
LINE
  5
275
330
1F
100
AcDbEntity
  8
0
  6
Continuous
 62
     2
370
    13
100
AcDbLine
 10
1779.294651431139
 20
850.4587217993646
 30
0.0
 11
1679.294651431139
 21
850.4587217993646
 31
0.0
  0
LINE
  5
276
330
1F
100
AcDbEntity
  8
0
  6
Continuous
 62
     2
370
    13
100
AcDbLine
 10
1679.294651431139
 20
970.4587217993651
 30
0.0
 11
1679.294651431139
 21
850.4587217993646
 31
0.0
  0
LINE
  5
277
330
1F
100
AcDbEntity
  8
0
  6
Continuous
 62
     2
370
    13
100
AcDbLine
 10
1779.294651431139
 20
-89.54127820063502
 30
0.0
 11
1779.294651431139
 21
30.45872179936498
 31
0.0
  0
LINE
  5
278
330
1F
100
AcDbEntity
  8
0
  6
Continuous
 62
     2
370
    13
100
AcDbLine
 10
1779.294651431139
 20
-89.54127820063502
 30
0.0
 11
1679.294651431139
 21
-89.54127820063502
 31
0.0
  0
LINE
  5
279
330
1F
100
AcDbEntity
  8
0
  6
Continuous
 62
     2
370
    13
100
AcDbLine
 10
1679.294651431139
 20
30.45872179936498
 30
0.0
 11
1779.294651431139
 21
30.45872179936498
 31
0.0
  0
LINE
  5
27A
330
1F
100
AcDbEntity
  8
0
  6
Continuous
 62
     2
370
    13
100
AcDbLine
 10
1679.294651431139
 20
30.45872179936498
 30
0.0
 11
1679.294651431139
 21
-89.54127820063502
 31
0.0
  0
LINE
  5
27B
330
1F
100
AcDbEntity
  8
0
  6
Continuous
 62
     2
370
    13
100
AcDbLine
 10
2069.294651431138
 20
-89.54127820063502
 30
0.0
 11
2069.294651431138
 21
30.45872179936498
 31
0.0
  0
LINE
  5
27C
330
1F
100
AcDbEntity
  8
0
  6
Continuous
 62
     2
370
    13
100
AcDbLine
 10
2019.294651431138
 20
-89.54127820063502
 30
0.0
 11
2069.294651431138
 21
-89.54127820063502
 31
0.0
  0
LINE
  5
27D
330
1F
100
AcDbEntity
  8
0
  6
Continuous
 62
     2
370
    13
100
AcDbLine
 10
2069.294651431138
 20
30.45872179936498
 30
0.0
 11
2019.294651431138
 21
30.45872179936498
 31
0.0
  0
LINE
  5
27E
330
1F
100
AcDbEntity
  8
0
  6
Continuous
 62
     2
370
    13
100
AcDbLine
 10
189.294651431138
 20
-89.54127820063502
 30
0.0
 11
189.294651431138
 21
30.45872179936498
 31
0.0
  0
LINE
  5
27F
330
1F
100
AcDbEntity
  8
0
  6
Continuous
 62
     2
370
    13
100
AcDbLine
 10
239.2946514311373
 20
-89.54127820063502
 30
0.0
 11
189.294651431138
 21
-89.54127820063502
 31
0.0
  0
LINE
  5
280
330
1F
100
AcDbEntity
  8
0
  6
Continuous
 62
     2
370
    13
100
AcDbLine
 10
239.294651431138
 20
30.45872179936498
 30
0.0
 11
189.294651431138
 21
30.45872179936498
 31
0.0
  0
LINE
  5
281
330
1F
100
AcDbEntity
  8
0
  6
Continuous
 62
     2
370
    13
100
AcDbLine
 10
189.294651431138
 20
-1622.434240884546
 30
0.0
 11
189.294651431138
 21
-1667.434240884546
 31
0.0
  0
LINE
  5
282
330
1F
100
AcDbEntity
  8
0
  6
Continuous
 62
     2
370
    13
100
AcDbLine
 10
189.294651431138
 20
-1667.434240884546
 30
0.0
 11
1890.302686224364
 21
-1667.434240884546
 31
0.0
  0
LINE
  5
283
330
1F
100
AcDbEntity
  8
0
  6
Continuous
 62
     2
370
    13
100
AcDbLine
 10
1684.294651431139
 20
-1596.434240884546
 30
0.0
 11
1729.294651431139
 21
-1596.434240884546
 31
0.0
  0
LINE
  5
284
330
1F
100
AcDbEntity
  8
0
  6
Continuous
 62
     2
370
    13
100
AcDbLine
 10
1784.294651431139
 20
-1596.434240884546
 30
0.0
 11
1784.294651431139
 21
-1605.434240884546
 31
0.0
  0
LINE
  5
285
330
1F
100
AcDbEntity
  8
0
  6
Continuous
 62
     2
370
    13
100
AcDbLine
 10
1684.294651431139
 20
-1605.434240884546
 30
0.0
 11
1684.294651431139
 21
-1596.434240884546
 31
0.0
  0
LINE
  5
286
330
1F
100
AcDbEntity
  8
0
  6
Continuous
 62
     2
370
    13
100
AcDbLine
 10
1729.794651431139
 20
-1575.434240884546
 30
0.0
 11
1738.794651431139
 21
-1575.434240884546
 31
0.0
  0
LINE
  5
287
330
1F
100
AcDbEntity
  8
0
  6
Continuous
 62
     2
370
    13
100
AcDbLine
 10
1740.294651431139
 20
-1576.934240884546
 30
0.0
 11
1740.294651431139
 21
-1605.434240884546
 31
0.0
  0
LINE
  5
288
330
1F
100
AcDbEntity
  8
0
  6
Continuous
 62
     2
370
    13
100
AcDbLine
 10
1728.294651431139
 20
-1576.934240884546
 30
0.0
 11
1728.294651431139
 21
-1605.434240884546
 31
0.0
  0
LINE
  5
289
330
1F
100
AcDbEntity
  8
0
  6
Continuous
 62
     2
370
    13
100
AcDbLine
 10
1737.294651431139
 20
-1605.434240884546
 30
0.0
 11
1740.294651431139
 21
-1602.434240884546
 31
0.0
  0
LINE
  5
28A
330
1F
100
AcDbEntity
  8
0
  6
Continuous
 62
     2
370
    13
100
AcDbLine
 10
1728.294651431139
 20
-1602.434240884546
 30
0.0
 11
1731.294651431139
 21
-1605.434240884546
 31
0.0
  0
LINE
  5
28B
330
1F
100
AcDbEntity
  8
0
  6
Continuous
 62
     2
370
    13
100
AcDbLine
 10
1729.794651431139
 20
-1575.434240884546
 30
0.0
 11
1728.294651431139
 21
-1576.934240884546
 31
0.0
  0
LINE
  5
28C
330
1F
100
AcDbEntity
  8
0
  6
Continuous
 62
     2
370
    13
100
AcDbLine
 10
1738.794651431139
 20
-1575.434240884546
 30
0.0
 11
1740.294651431139
 21
-1576.934240884546
 31
0.0
  0
LINE
  5
28D
330
1F
100
AcDbEntity
  8
0
  6
Continuous
 62
     2
370
    13
100
AcDbLine
 10
1739.294651431139
 20
-1596.434240884546
 30
0.0
 11
1784.294651431139
 21
-1596.434240884546
 31
0.0
  0
LINE
  5
28E
330
1F
100
AcDbEntity
  8
0
  6
Continuous
 62
     2
370
    13
100
AcDbLine
 10
2019.294651431139
 20
-1493.286133020387
 30
0.0
 11
2019.294651431139
 21
-1603.434240884546
 31
0.0
  0
LINE
  5
28F
330
1F
100
AcDbEntity
  8
0
  6
Continuous
 62
     2
370
    13
100
AcDbLine
 10
2014.294651431139
 20
-1107.434240884546
 30
0.0
 11
244.294651431138
 21
-1107.434240884546
 31
0.0
  0
LINE
  5
290
330
1F
100
AcDbEntity
  8
0
  6
Continuous
 62
     2
370
    13
100
AcDbLine
 10
1897.292095607766
 20
-1607.434240884546
 30
0.0
 11
2015.294651431139
 21
-1607.434240884546
 31
0.0
  0
ARC
  5
291
330
1F
100
AcDbEntity
  8
0
  6
Continuous
 62
     2
370
    13
100
AcDbCircle
 10
2069.794651431138
 20
440.4587217993648
 30
0.0
 40
11.17253212834066
100
AcDbArc
 50
90.0
 51
179.9999999999988
  0
ARC
  5
292
330
1F
100
AcDbEntity
  8
0
  6
Continuous
 62
     2
370
    13
100
AcDbCircle
 10
2069.794651431138
 20
440.4587217993648
 30
0.0
 40
11.17253212834021
100
AcDbArc
 50
179.9999999999988
 51
270.0
  0
CIRCLE
  5
293
330
1F
100
AcDbEntity
  8
0
  6
Continuous
 62
     2
370
    13
100
AcDbCircle
 10
529.2946514311387
 20
910.4587217993651
 30
0.0
 40
7.0
  0
CIRCLE
  5
294
330
1F
100
AcDbEntity
  8
0
  6
Continuous
 62
     2
370
    13
100
AcDbCircle
 10
529.2946514311387
 20
-29.54127820063502
 30
0.0
 40
7.0
  0
CIRCLE
  5
295
330
1F
100
AcDbEntity
  8
0
  6
Continuous
 62
     2
370
    13
100
AcDbCircle
 10
1729.294651431139
 20
910.4587217993651
 30
0.0
 40
7.0
  0
CIRCLE
  5
296
330
1F
100
AcDbEntity
  8
0
  6
Continuous
 62
     2
370
    13
100
AcDbCircle
 10
1729.294651431139
 20
-29.54127820063502
 30
0.0
 40
7.0
  0
CIRCLE
  5
297
330
1F
100
AcDbEntity
  8
0
  6
Continuous
 62
     2
370
    13
100
AcDbCircle
 10
214.294651431138
 20
910.4587217993651
 30
0.0
 40
7.5
  0
CIRCLE
  5
298
330
1F
100
AcDbEntity
  8
0
  6
Continuous
 62
     2
370
    13
100
AcDbCircle
 10
214.294651431138
 20
-29.54127820063502
 30
0.0
 40
7.5
  0
CIRCLE
  5
299
330
1F
100
AcDbEntity
  8
0
  6
Continuous
 62
     2
370
    13
100
AcDbCircle
 10
2044.294651431138
 20
-29.54127820063502
 30
0.0
 40
7.5
  0
CIRCLE
  5
29A
330
1F
100
AcDbEntity
  8
0
  6
Continuous
 62
     2
370
    13
100
AcDbCircle
 10
2044.294651431138
 20
910.4587217993651
 30
0.0
 40
7.5
  0
SPLINE
  5
29B
330
1F
100
AcDbEntity
  8
0
  6
Continuous
 62
     2
370
    13
100
AcDbSpline
210
0.0
220
0.0
230
1.0
 70
     8
 71
     3
 72
     8
 73
     4
 74
     0
 42
0.000000001
 43
0.0000000001
 40
0.0
 40
0.0
 40
0.0
 40
0.0
 40
53.13305468243063
 40
53.13305468243063
 40
53.13305468243063
 40
53.13305468243063
 10
1897.292095607766
 20
-1607.434240884546
 30
0.0
 10
1874.789427950052
 20
-1621.352955264409
 30
0.0
 10
1898.740732494571
 20
-1649.963224553143
 30
0.0
 10
1890.302686224364
 20
-1667.434240884546
 30
0.0
  0
SPLINE
  5
29C
330
1F
100
AcDbEntity
  8
0
  6
Continuous
 62
     2
370
    13
100
AcDbSpline
210
0.0
220
0.0
230
1.0
 70
     8
 71
     3
 72
    12
 73
     8
 74
     0
 42
0.000000001
 43
0.0000000001
 40
0.0
 40
0.0
 40
0.0
 40
0.0
 40
102.4914982153734
 40
151.1373709591344
 40
208.0854316117454
 40
260.8185608600785
 40
331.8530190629202
 40
331.8530190629202
 40
331.8530190629202
 40
331.8530190629202
 10
1613.771863678153
 20
-1607.434240884546
 30
0.0
 10
1607.201991102515
 20
-1566.788103416488
 30
0.0
 10
1652.394084211261
 20
-1528.026777895992
 30
0.0
 10
1720.37457829563
 20
-1521.956296641734
 30
0.0
 10
1776.797398983572
 20
-1512.953579060426
 30
0.0
 10
1822.716015648176
 20
-1556.853346239856
 30
0.0
 10
1859.121753494522
 20
-1579.752688120786
 30
0.0
 10
1857.83498076077
 20
-1607.434240884546
 30
0.0
  0
SPLINE
  5
29D
330
1F
100
AcDbEntity
  8
0
  6
Continuous
 62
     2
370
    13
100
AcDbSpline
210
0.0
220
0.0
230
1.0
 70
     8
 71
     3
 72
    11
 73
     7
 74
     0
 42
0.000000001
 43
0.0000000001
 40
0.0
 40
0.0
 40
0.0
 40
0.0
 40
92.17800887162977
 40
160.2016593510759
 40
234.0526340572068
 40
332.2085204772474
 40
332.2085204772474
 40
332.2085204772474
 40
332.2085204772474
 10
1916.989705868574
 20
-1107.434240884546
 30
0.0
 10
1910.88983902409
 20
-1269.645483236784
 30
0.0
 10
1955.715935639036
 20
-1318.426081738126
 30
0.0
 10
1929.249427007828
 20
-1553.756729958899
 30
0.0
 10
1960.204341530716
 20
-1519.712254192069
 30
0.0
 10
1922.433558336056
 20
-1576.108964230565
 30
0.0
 10
1897.292095607766
 20
-1607.434240884546
 30
0.0
  0
ARC
  5
29E
330
1F
100
AcDbEntity
  8
0
  6
Continuous
 62
     2
370
    13
100
AcDbCircle
 10
2015.294651431139
 20
-1603.434240884546
 30
0.0
 40
4.0
100
AcDbArc
 50
270.0
 51
0.0
  0
ARC
  5
29F
330
1F
100
AcDbEntity
  8
0
  6
Continuous
 62
     2
370
    13
100
AcDbCircle
 10
1994.29465143114
 20
-1112.434240884546
 30
0.0
 40
5.0
100
AcDbArc
 50
90.00000000001042
 51
180.0
  0
ARC
  5
2A0
330
1F
100
AcDbEntity
  8
0
  6
Continuous
 62
     2
370
    13
100
AcDbCircle
 10
2014.294651431139
 20
-1112.434240884546
 30
0.0
 40
5.0
100
AcDbArc
 50
0.0
 51
90.0
  0
ARC
  5
2A1
330
1F
100
AcDbEntity
  8
0
  6
Continuous
 62
     2
370
    13
100
AcDbCircle
 10
244.294651431138
 20
-1112.434240884546
 30
0.0
 40
5.0
100
AcDbArc
 50
90.0
 51
180.0
  0
ARC
  5
2A2
330
1F
100
AcDbEntity
  8
0
  6
Continuous
 62
     2
370
    13
100
AcDbCircle
 10
244.294651431138
 20
-1602.434240884546
 30
0.0
 40
5.0
100
AcDbArc
 50
180.0
 51
270.0
  0
TEXT
  5
2A4
330
1F
100
AcDbEntity
  8
0
 62
     2
100
AcDbText
 10
-1375.876693930258
 20
1595.646226671544
 30
0.0
 40
230.4
  1
サンダイヤ　防油堤　仕様書
 41
0.6250000000000001
  7
dcStyle0
 72
     5
 11
1020.283306069742
 21
1595.646226671544
 31
0.0
100
AcDbText
  0
TEXT
  5
2A5
330
1F
100
AcDbEntity
  8
0
 62
     2
100
AcDbText
 10
-2544.366569110337
 20
-1621.066229550834
 30
0.0
 40
72.0
  1
株式会社
 41
1.606956521739132
  7
dcStyle1
 72
     5
 11
-2164.206569110337
 21
-1621.066229550834
 31
0.0
100
AcDbText
  0
TEXT
  5
2A6
330
1F
100
AcDbEntity
  8
0
 62
     2
100
AcDbText
 10
-2213.704087163094
 20
-733.6436825747749
 30
0.0
 40
64.0
  1
ナット，スプリングワッシャ，平ワッシャ，各４セット
 41
0.939597315436241
  7
dcStyle1
 72
     5
 11
-933.7040871630943
 21
-733.6436825747749
 31
0.0
100
AcDbText
  0
TEXT
  5
2A7
330
1F
100
AcDbEntity
  8
0
 62
     2
100
AcDbText
 10
-2089.688667805781
 20
709.3983817662859
 30
0.0
 40
105.4152
  1
ＳＢ０９－１８１３Ｇ
 41
0.625
  7
dcStyle0
 72
     5
 11
-1246.367067805781
 21
709.3983817662859
 31
0.0
100
AcDbText
  0
TEXT
  5
2A8
330
1F
100
AcDbEntity
  8
0
 62
     2
100
AcDbText
 10
-2684.506462521437
 20
-622.2613627619268
 30
0.0
 40
72.0
  1
付属部品
 41
0.9739130434782615
  7
dcStyle1
 72
     5
 11
-2454.106462521437
 21
-622.2613627619268
 31
0.0
100
AcDbText
  0
TEXT
  5
2A9
330
1F
100
AcDbEntity
  8
0
 62
     2
100
AcDbText
 10
-2257.261431179526
 20
-47.26922572638108
 30
0.0
 40
64.0
  1
スタッドボルト（Ｍ１６）
 41
0.9464788732394362
  7
dcStyle1
 72
     5
 11
-1642.861431179527
 21
-47.26922572638108
 31
0.0
100
AcDbText
  0
TEXT
  5
2AA
330
1F
100
AcDbEntity
  8
0
 62
     2
100
AcDbText
 10
-2684.506462521437
 20
-46.22845056372245
 30
0.0
 40
72.0
  1
タンク固定
 41
0.9655172413793104
  7
dcStyle1
 72
     5
 11
-2396.506462521437
 21
-46.22845056372245
 31
0.0
100
AcDbText
  0
TEXT
  5
2AB
330
1F
100
AcDbEntity
  8
0
 62
     2
100
AcDbText
 10
-2257.195469045225
 20
-1049.110751125176
 30
0.0
 40
64.0
  1
あと施工接着式　Ｍ16深さ110ｍｍ以上
 41
0.9155313351498633
  7
dcStyle1
 72
     5
 11
-1233.195469045226
 21
-1049.110751125176
 31
0.0
100
AcDbText
  0
TEXT
  5
2AC
330
1F
100
AcDbEntity
  8
0
 62
     2
100
AcDbText
 10
-2682.311781115422
 20
-1049.110751125176
 30
0.0
 40
72.0
  1
基礎ボルト
 41
0.9655172413793104
  7
dcStyle1
 72
     5
 11
-2394.311781115422
 21
-1049.110751125176
 31
0.0
100
AcDbText
  0
TEXT
  5
2AD
330
1F
100
AcDbEntity
  8
0
 62
     2
100
AcDbText
 10
-2257.261431179526
 20
-222.0855604981866
 30
0.0
 40
64.0
  1
ネジ径　Ｒｃ１／２（ボ－ルバルブ付）
 41
0.9420560747663546
  7
dcStyle1
 72
     5
 11
-1335.661431179527
 21
-222.0855604981866
 31
0.0
100
AcDbText
  0
TEXT
  5
2AE
330
1F
100
AcDbEntity
  8
0
 62
     2
100
AcDbText
 10
-2257.261431179526
 20
-474.6868863220484
 30
0.0
 40
64.0
  1
120Ｋｇ
 41
0.903225806451613
  7
dcStyle1
 72
     5
 11
-2001.261431179526
 21
-474.6868863220484
 31
0.0
100
AcDbText
  0
TEXT
  5
2AF
330
1F
100
AcDbEntity
  8
0
 62
     2
100
AcDbText
 10
-2257.261431179526
 20
-344.9092003336042
 30
0.0
 40
64.0
  1
ステンレス素地
 41
0.9560975609756095
  7
dcStyle1
 72
     5
 11
-1898.861431179527
 21
-344.9092003336042
 31
0.0
100
AcDbText
  0
TEXT
  5
2B0
330
1F
100
AcDbEntity
  8
0
 62
     2
100
AcDbText
 10
-2526.366480357531
 20
119.7354349900356
 30
0.0
 40
72.0
  1
架　台
 41
0.9882352941176482
  7
dcStyle1
 72
     5
 11
-2353.566480357531
 21
119.7354349900356
 31
0.0
100
AcDbText
  0
TEXT
  5
2B1
330
1F
100
AcDbEntity
  8
0
 62
     2
100
AcDbText
 10
-2257.261431179526
 20
253.273306348578
 30
0.0
 40
64.0
  1
ステンレス（ＳＵＳ３０４）　ｔ２．０
 41
0.9420560747663546
  7
dcStyle1
 72
     5
 11
-1335.661431179527
 21
253.273306348578
 31
0.0
100
AcDbText
  0
TEXT
  5
2B2
330
1F
100
AcDbEntity
  8
0
 62
     2
100
AcDbText
 10
-2684.506462521437
 20
-482.6450558274196
 30
0.0
 40
72.0
  1
完成重量
 41
0.9739130434782615
  7
dcStyle1
 72
     5
 11
-2454.106462521437
 21
-482.6450558274196
 31
0.0
100
AcDbText
  0
TEXT
  5
2B3
330
1F
100
AcDbEntity
  8
0
 62
     2
100
AcDbText
 10
-2684.506462521437
 20
-344.1640644902233
 30
0.0
 40
72.0
  1
表面処理
 41
0.9739130434782615
  7
dcStyle1
 72
     5
 11
-2454.106462521437
 21
-344.1640644902233
 31
0.0
100
AcDbText
  0
TEXT
  5
2B4
330
1F
100
AcDbEntity
  8
0
 62
     2
100
AcDbText
 10
-2684.506462521437
 20
-218.8855604981866
 30
0.0
 40
72.0
  1
水抜口
 41
0.9882352941176482
  7
dcStyle1
 72
     5
 11
-2511.706462521437
 21
-218.8855604981866
 31
0.0
100
AcDbText
  0
TEXT
  5
2B5
330
1F
100
AcDbEntity
  8
0
 62
     2
100
AcDbText
 10
-2529.566480357531
 20
253.2733063485779
 30
0.0
 40
72.0
  1
本　体
 41
0.9882352941176457
  7
dcStyle1
 72
     5
 11
-2356.766480357531
 21
253.2733063485779
 31
0.0
100
AcDbText
  0
TEXT
  5
2B6
330
1F
100
AcDbEntity
  8
0
 62
     2
100
AcDbText
 10
-2257.261431179526
 20
550.9966609549097
 30
0.0
 40
72.0
  1
１１７７Ｌ
 41
0.9655172413793104
  7
dcStyle1
 72
     5
 11
-1969.261431179526
 21
550.9966609549097
 31
0.0
100
AcDbText
  0
TEXT
  5
2B7
330
1F
100
AcDbEntity
  8
0
 62
     2
100
AcDbText
 10
-2654.99434741694
 20
532.1536946203879
 30
0.0
 40
72.0
  1
容　　量
 41
0.9739130434782615
  7
dcStyle1
 72
     5
 11
-2424.59434741694
 21
532.1536946203879
 31
0.0
100
AcDbText
  0
TEXT
  5
2B8
330
1F
100
AcDbEntity
  8
0
 62
     2
100
AcDbText
 10
-2655.128682787302
 20
723.5963445309862
 30
0.0
 40
72.0
  1
型　　式
 41
0.9739130434782615
  7
dcStyle1
 72
     5
 11
-2424.728682787302
 21
723.5963445309862
 31
0.0
100
AcDbText
  0
TEXT
  5
2B9
330
1F
100
AcDbEntity
  8
0
 62
     2
100
AcDbText
 10
-2683.213682210031
 20
-1180.998190337714
 30
0.0
 40
72.0
  1
適用タンク
 41
0.9655172413793104
  7
dcStyle1
 72
     5
 11
-2395.213682210031
 21
-1180.998190337714
 31
0.0
100
AcDbText
  0
TEXT
  5
2BA
330
1F
100
AcDbEntity
  8
0
 62
     2
100
AcDbText
 10
-2686.276608801964
 20
248.0843570974037
 30
0.0
 40
72.0
  1
材
 41
1.119999999999998
  7
dcStyle1
 72
     5
 11
-2628.676608801964
 21
248.0843570974037
 31
0.0
100
AcDbText
  0
TEXT
  5
2BB
330
1F
100
AcDbEntity
  8
0
 62
     2
100
AcDbText
 10
-2686.276608801964
 20
108.146485740351
 30
0.0
 40
72.0
  1
料
 41
1.119999999999998
  7
dcStyle1
 72
     5
 11
-2628.676608801964
 21
108.146485740351
 31
0.0
100
AcDbText
  0
TEXT
  5
2BC
330
1F
100
AcDbEntity
  8
0
 62
     2
100
AcDbText
 10
-2233.746757733408
 20
418.475212327794
 30
0.0
 40
56.0
  1
＝（１７８０－４）×（１３３５－４）×（５００－２）／１０
 41
0.9387283236994222
  7
dcStyle1
 72
     5
 11
-934.5467577334075
 21
418.475212327794
 31
0.0
100
AcDbText
  0
TEXT
  5
2BD
330
1F
100
AcDbEntity
  8
0
 62
     2
100
AcDbText
 10
-930.6806616601
 20
459.9457736568025
 30
0.0
 40
40.0
  1
６
 41
1.12
  7
dcStyle1
 72
     5
 11
-898.6806616601
 21
459.9457736568025
 31
0.0
100
AcDbText
  0
TEXT
  5
2BE
330
1F
100
AcDbEntity
  8
0
 62
     2
100
AcDbText
 10
-2258.504087164584
 20
-608.8436825747749
 30
0.0
 40
64.0
  1
ステンレス製Ｍ１６（スタッドボルトに仮組）
 41
0.9407999999999994
  7
dcStyle1
 72
     5
 11
-1183.304087164584
 21
-608.8436825747749
 31
0.0
100
AcDbText
  0
TEXT
  5
2BF
330
1F
100
AcDbEntity
  8
0
 62
     2
100
AcDbText
 10
-2257.195469045225
 20
-1177.595155931559
 30
0.0
 40
64.0
  1
ＳＨ－９９０Ｇ１
 41
0.9531914893617021
  7
dcStyle1
 72
     5
 11
-1847.595469045225
 21
-1177.595155931559
 31
0.0
100
AcDbText
  0
TEXT
  5
2C0
330
1F
100
AcDbEntity
  8
0
 62
     2
100
AcDbText
 10
-2257.261431179526
 20
122.0733063485781
 30
0.0
 40
64.0
  1
ステンレス（ＳＵＳ３０４）　ｔ５．０
 41
0.9420560747663546
  7
dcStyle1
 72
     5
 11
-1335.661431179527
 21
122.0733063485781
 31
0.0
100
AcDbText
  0
TEXT
  5
2C1
330
1F
100
AcDbEntity
  8
0
 62
     2
100
AcDbText
 10
-2684.506462521438
 20
-917.7388879964228
 30
0.0
 40
72.0
  1
耐震条件
 41
0.9739130434782615
  7
dcStyle1
 72
     5
 11
-2454.106462521438
 21
-917.7388879964228
 31
0.0
100
AcDbText
  0
TEXT
  5
2C2
330
1F
100
AcDbEntity
  8
0
 62
     2
100
AcDbText
 10
-2257.261431179528
 20
-917.7388879964228
 30
0.0
 40
64.0
  1
耐震設計震度　１．０以下
 41
0.9464788732394362
  7
dcStyle1
 72
     5
 11
-1642.861431179528
 21
-917.7388879964228
 31
0.0
100
AcDbText
  0
TEXT
  5
2C3
330
1F
100
AcDbEntity
  8
0
 62
     2
100
AcDbText
 10
1099.292451014294
 20
-2289.345752925071
 30
0.0
 40
71.99999999999996
  1
Ｊ2272-1
 41
0.8711111111111108
  7
dcStyle1
 72
     5
 11
1502.492451014293
 21
-2289.345752925071
 31
0.0
100
AcDbText
  0
TEXT
  5
2C4
330
1F
100
AcDbEntity
  8
0
 62
     2
100
AcDbText
 10
2099.84116255494
 20
-2289.345752925071
 30
0.0
 40
71.99999999999996
  1
98616-95905-11
 41
0.8310954063604236
  7
dcStyle1
 72
     5
 11
2906.241162554939
 21
-2289.345752925071
 31
0.0
100
AcDbText
  0
LINE
  5
2C5
330
1F
100
AcDbEntity
  8
0
  6
Continuous
 62
     4
370
    13
100
AcDbLine
 10
2019.294651431139
 20
-1607.434240884546
 30
0.0
 11
2019.294651431139
 21
-1603.956412607707
 31
0.0
  0
LINE
  5
2C6
330
1F
100
AcDbEntity
  8
0
  6
Continuous
 62
     4
370
    13
100
AcDbLine
 10
2017.294651431138
 20
-1112.434240884546
 30
0.0
 11
2017.294651431139
 21
-1603.434240884546
 31
0.0
  0
LINE
  5
2C7
330
1F
100
AcDbEntity
  8
0
  6
Continuous
 62
     4
370
    13
100
AcDbLine
 10
1994.29465143114
 20
-1109.434240884546
 30
0.0
 11
2014.294651431139
 21
-1109.434240884546
 31
0.0
  0
LINE
  5
2C8
330
1F
100
AcDbEntity
  8
0
  6
Continuous
 62
     4
370
    13
100
AcDbLine
 10
1991.29465143114
 20
-1112.434240884546
 30
0.0
 11
1991.29465143114
 21
-1122.434240884546
 31
0.0
  0
LINE
  5
2C9
330
1F
100
AcDbEntity
  8
0
  6
Continuous
 62
     4
370
    13
100
AcDbLine
 10
1991.29465143114
 20
-1122.434240884546
 30
0.0
 11
1917.897762729979
 21
-1122.434240884546
 31
0.0
  0
LINE
  5
2CA
330
1F
100
AcDbEntity
  8
0
  6
Continuous
 62
     4
370
    13
100
AcDbLine
 10
2019.294651431138
 20
967.4587217993651
 30
0.0
 11
2069.294651431138
 21
967.4587217993651
 31
0.0
  0
LINE
  5
2CB
330
1F
100
AcDbEntity
  8
0
  6
Continuous
 62
     4
370
    13
100
AcDbLine
 10
2019.294651431138
 20
853.4587217993646
 30
0.0
 11
2069.294651431138
 21
853.4587217993651
 31
0.0
  0
LINE
  5
2CC
330
1F
100
AcDbEntity
  8
0
  6
Continuous
 62
     4
370
    13
100
AcDbLine
 10
189.294651431138
 20
967.4587217993651
 30
0.0
 11
239.294651431138
 21
967.4587217993651
 31
0.0
  0
LINE
  5
2CD
330
1F
100
AcDbEntity
  8
0
  6
Continuous
 62
     4
370
    13
100
AcDbLine
 10
189.294651431138
 20
853.4587217993651
 30
0.0
 11
239.2946514311373
 21
853.4587217993651
 31
0.0
  0
LINE
  5
2CE
330
1F
100
AcDbEntity
  8
0
  6
Continuous
 62
     4
370
    13
100
AcDbLine
 10
2069.294651431138
 20
-86.54127820063502
 30
0.0
 11
2019.294651431138
 21
-86.54127820063502
 31
0.0
  0
LINE
  5
2CF
330
1F
100
AcDbEntity
  8
0
  6
Continuous
 62
     4
370
    13
100
AcDbLine
 10
2069.294651431138
 20
27.45872179936498
 30
0.0
 11
2019.294651431138
 21
27.45872179936498
 31
0.0
  0
LINE
  5
2D0
330
1F
100
AcDbEntity
  8
0
  6
Continuous
 62
     4
370
    13
100
AcDbLine
 10
239.2946514311373
 20
-86.54127820063502
 30
0.0
 11
189.294651431138
 21
-86.54127820063502
 31
0.0
  0
LINE
  5
2D1
330
1F
100
AcDbEntity
  8
0
  6
Continuous
 62
     4
370
    13
100
AcDbLine
 10
239.294651431138
 20
27.45872179936498
 30
0.0
 11
189.294651431138
 21
27.45872179936498
 31
0.0
  0
LINE
  5
2D2
330
1F
100
AcDbEntity
  8
0
  6
Continuous
 62
     4
370
    13
100
AcDbLine
 10
1857.889896340811
 20
-1605.434240884546
 30
0.0
 11
1613.476925845771
 21
-1605.434240884546
 31
0.0
  0
LINE
  5
2D3
330
1F
100
AcDbEntity
  8
0
  6
Continuous
 62
     4
370
    13
100
AcDbLine
 10
1739.294651431139
 20
-1575.934240884546
 30
0.0
 11
1739.294651431139
 21
-1603.434240884546
 31
0.0
  0
LINE
  5
2D4
330
1F
100
AcDbEntity
  8
0
  6
Continuous
 62
     4
370
    13
100
AcDbLine
 10
1729.294651431139
 20
-1603.434240884546
 30
0.0
 11
1729.294651431139
 21
-1575.934240884546
 31
0.0
  0
LINE
  5
2D5
330
1F
100
AcDbEntity
  8
0
  6
Continuous
 62
     4
370
    13
100
AcDbLine
 10
1898.891332228499
 20
-1605.434240884546
 30
0.0
 11
2015.294651431139
 21
-1605.434240884546
 31
0.0
  0
ARC
  5
2D6
330
1F
100
AcDbEntity
  8
0
  6
Continuous
 62
     4
370
    13
100
AcDbCircle
 10
2015.294651431139
 20
-1603.434240884546
 30
0.0
 40
2.0
100
AcDbArc
 50
270.0
 51
0.0
  0
ARC
  5
2D7
330
1F
100
AcDbEntity
  8
0
  6
Continuous
 62
     4
370
    13
100
AcDbCircle
 10
1994.29465143114
 20
-1112.434240884546
 30
0.0
 40
3.0
100
AcDbArc
 50
90.0
 51
180.0
  0
ARC
  5
2D8
330
1F
100
AcDbEntity
  8
0
  6
Continuous
 62
     4
370
    13
100
AcDbCircle
 10
2014.294651431139
 20
-1112.434240884546
 30
0.0
 40
2.999999999999091
100
AcDbArc
 50
0.0
 51
90.0
  0
LINE
  5
2D9
330
1F
100
AcDbEntity
  8
0
  6
CENTER
 62
     3
370
    13
100
AcDbLine
 10
125.1349611660228
 20
440.4587217993649
 30
0.0
 11
2168.640600899674
 21
440.458721799365
 31
0.0
  0
LINE
  5
2DA
330
1F
100
AcDbEntity
  8
0
  6
DASHED2
 62
     3
370
    13
100
AcDbLine
 10
239.294651431138
 20
970.4587217993653
 30
0.0
 11
2019.294651431138
 21
970.4587217993653
 31
0.0
  0
LINE
  5
2DB
330
1F
100
AcDbEntity
  8
0
  6
DASHED2
 62
     3
370
    13
100
AcDbLine
 10
239.294651431138
 20
967.4587217993653
 30
0.0
 11
2019.294651431138
 21
967.4587217993653
 31
0.0
  0
LINE
  5
2DC
330
1F
100
AcDbEntity
  8
0
  6
DASHED2
 62
     3
370
    13
100
AcDbLine
 10
2019.294651431138
 20
853.4587217993646
 30
0.0
 11
239.2946514311373
 21
853.4587217993653
 31
0.0
  0
LINE
  5
2DD
330
1F
100
AcDbEntity
  8
0
  6
DASHED2
 62
     3
370
    13
100
AcDbLine
 10
2019.294651431138
 20
850.4587217993653
 30
0.0
 11
239.2946514311373
 21
850.4587217993653
 31
0.0
  0
LINE
  5
2DE
330
1F
100
AcDbEntity
  8
0
  6
DASHED2
 62
     3
370
    13
100
AcDbLine
 10
2019.294651431138
 20
-89.54127820063502
 30
0.0
 11
239.2946514311373
 21
-89.54127820063502
 31
0.0
  0
LINE
  5
2DF
330
1F
100
AcDbEntity
  8
0
  6
DASHED2
 62
     3
370
    13
100
AcDbLine
 10
2019.294651431138
 20
-86.54127820063502
 30
0.0
 11
239.2946514311373
 21
-86.54127820063502
 31
0.0
  0
LINE
  5
2E0
330
1F
100
AcDbEntity
  8
0
  6
DASHED2
 62
     3
370
    13
100
AcDbLine
 10
239.294651431138
 20
27.45872179936498
 30
0.0
 11
2019.294651431138
 21
27.45872179936498
 31
0.0
  0
LINE
  5
2E1
330
1F
100
AcDbEntity
  8
0
  6
DASHED2
 62
     3
370
    13
100
AcDbLine
 10
239.294651431138
 20
30.45872179936498
 30
0.0
 11
2019.294651431138
 21
30.45872179936498
 31
0.0
  0
LINE
  5
2E2
330
1F
100
AcDbEntity
  8
0
  6
DASHED2
 62
     3
370
    13
100
AcDbLine
 10
206.794651431138
 20
-1664.434240884546
 30
0.0
 11
206.794651431138
 21
-1667.434240884546
 31
0.0
  0
LINE
  5
2E3
330
1F
100
AcDbEntity
  8
0
  6
DASHED2
 62
     3
370
    13
100
AcDbLine
 10
221.794651431138
 20
-1664.434240884546
 30
0.0
 11
221.794651431138
 21
-1667.434240884546
 31
0.0
  0
LINE
  5
2E4
330
1F
100
AcDbEntity
  8
0
  6
DASHED2
 62
     3
370
    13
100
AcDbLine
 10
189.294651431138
 20
-1664.434240884546
 30
0.0
 11
1891.445185981145
 21
-1664.434240884546
 31
0.0
  0
LINE
  5
2E5
330
1F
100
AcDbEntity
  8
0
  6
CENTER
 62
     6
370
    13
100
AcDbLine
 10
529.2946514311388
 20
-183.612283065459
 30
0.0
 11
529.2946514311664
 21
68.38672702883787
 31
0.0
  0
LINE
  5
2E6
330
1F
100
AcDbEntity
  8
0
  6
CENTER
 62
     6
370
    13
100
AcDbLine
 10
1729.294651431139
 20
994.7485571637249
 30
0.0
 11
1729.294651431167
 21
820.4221596577465
 31
0.0
  0
LINE
  5
2E7
330
1F
100
AcDbEntity
  8
0
  6
CENTER
 62
     6
370
    13
100
AcDbLine
 10
134.2301790027031
 20
910.4587217993653
 30
0.0
 11
2089.0955644504
 21
910.4587217993653
 31
0.0
  0
LINE
  5
2E8
330
1F
100
AcDbEntity
  8
0
  6
CENTER
 62
     6
370
    13
100
AcDbLine
 10
2044.294651431138
 20
864.6311690268774
 30
0.0
 11
2044.294651431138
 21
938.7023051323811
 31
0.0
  0
LINE
  5
2E9
330
1F
100
AcDbEntity
  8
0
  6
CENTER
 62
     6
370
    13
100
AcDbLine
 10
2044.294651431138
 20
-77.78486153365111
 30
0.0
 11
2044.294651431138
 21
-3.7137254281472
 31
0.0
  0
LINE
  5
2EA
330
1F
100
AcDbEntity
  8
0
  6
CENTER
 62
     6
370
    13
100
AcDbLine
 10
2089.0955644504
 20
-29.54127820063502
 30
0.0
 11
134.2301790027052
 21
-29.54127820063502
 31
0.0
  0
LINE
  5
2EB
330
1F
100
AcDbEntity
  8
0
  6
CENTER
 62
     6
370
    13
100
AcDbLine
 10
214.294651431138
 20
938.7023051323811
 30
0.0
 11
214.294651431138
 21
864.6311690268774
 31
0.0
  0
LINE
  5
2EC
330
1F
100
AcDbEntity
  8
0
  6
CENTER
 62
     6
370
    13
100
AcDbLine
 10
214.294651431138
 20
-3.7137254281472
 30
0.0
 11
214.294651431138
 21
-77.78486153365111
 31
0.0
  0
LINE
  5
2ED
330
1F
100
AcDbEntity
  8
0
  6
CENTER
 62
     6
370
    13
100
AcDbLine
 10
214.294651431138
 20
-1621.738761909378
 30
0.0
 11
214.294651431138
 21
-1697.95092252211
 31
0.0
  0
LINE
  5
2EE
330
1F
100
AcDbEntity
  8
0
  6
CENTER
 62
     6
370
    13
100
AcDbLine
 10
1729.294651431167
 20
75.44201592259009
 30
0.0
 11
1729.294651431139
 21
-183.612283065459
 31
0.0
  0
LINE
  5
2EF
330
1F
100
AcDbEntity
  8
0
  6
CENTER
 62
     6
370
    13
100
AcDbLine
 10
529.2946514311664
 20
825.2358582264189
 30
0.0
 11
529.2946514311388
 21
994.7485571637249
 31
0.0
  0
INSERT
  5
2F0
330
1F
100
AcDbEntity
  8
0
  6
Continuous
100
AcDbBlockReference
  2
DC_IMAGEDIMGROUP_1
 10
0.0
 20
0.0
 30
0.0
  0
INSERT
  5
2F1
330
1F
100
AcDbEntity
  8
0
  6
Continuous
100
AcDbBlockReference
  2
DC_IMAGEDIMGROUP_2
 10
0.0
 20
0.0
 30
0.0
  0
INSERT
  5
2F2
330
1F
100
AcDbEntity
  8
0
  6
Continuous
100
AcDbBlockReference
  2
DC_IMAGEDIMGROUP_3
 10
0.0
 20
0.0
 30
0.0
  0
INSERT
  5
2F3
330
1F
100
AcDbEntity
  8
0
  6
Continuous
100
AcDbBlockReference
  2
DC_IMAGEDIMGROUP_4
 10
0.0
 20
0.0
 30
0.0
  0
INSERT
  5
2F4
330
1F
100
AcDbEntity
  8
0
  6
Continuous
100
AcDbBlockReference
  2
DC_IMAGEDIMGROUP_5
 10
0.0
 20
0.0
 30
0.0
  0
INSERT
  5
2F5
330
1F
100
AcDbEntity
  8
0
  6
Continuous
100
AcDbBlockReference
  2
DC_IMAGEDIMGROUP_6
 10
0.0
 20
0.0
 30
0.0
  0
INSERT
  5
2F6
330
1F
100
AcDbEntity
  8
0
  6
Continuous
100
AcDbBlockReference
  2
DC_IMAGEDIMGROUP_7
 10
0.0
 20
0.0
 30
0.0
  0
INSERT
  5
2F7
330
1F
100
AcDbEntity
  8
0
  6
Continuous
100
AcDbBlockReference
  2
DC_IMAGEDIMGROUP_8
 10
0.0
 20
0.0
 30
0.0
  0
INSERT
  5
2F8
330
1F
100
AcDbEntity
  8
0
  6
Continuous
100
AcDbBlockReference
  2
DC_IMAGEDIMGROUP_9
 10
0.0
 20
0.0
 30
0.0
  0
INSERT
  5
2F9
330
1F
100
AcDbEntity
  8
0
  6
Continuous
100
AcDbBlockReference
  2
DC_IMAGEDIMGROUP_10
 10
0.0
 20
0.0
 30
0.0
  0
INSERT
  5
2FA
330
1F
100
AcDbEntity
  8
0
  6
Continuous
100
AcDbBlockReference
  2
DC_GROUP_SB09-1813G_1
 10
0.0
 20
0.0
 30
0.0
  0
INSERT
  5
2FB
330
1F
100
AcDbEntity
  8
0
  6
Continuous
100
AcDbBlockReference
  2
DC_GROUP_SB09-1813G_2
 10
0.0
 20
0.0
 30
0.0
  0
INSERT
  5
2FC
330
1F
100
AcDbEntity
  8
LAYER0004
  6
Continuous
100
AcDbBlockReference
  2
DC_GROUP_SB09-1813G_3
 10
0.0
 20
0.0
 30
0.0
  0
INSERT
  5
2FD
330
1F
100
AcDbEntity
  8
LAYER0004
  6
Continuous
100
AcDbBlockReference
  2
DC_GROUP_SB09-1813G_4
 10
0.0
 20
0.0
 30
0.0
  0
INSERT
  5
2FE
330
1F
100
AcDbEntity
  8
LAYER0004
  6
Continuous
100
AcDbBlockReference
  2
DC_GROUP_SB09-1813G_5
 10
0.0
 20
0.0
 30
0.0
  0
VIEWPORT
  5
B2
102
{ACAD_XDICTIONARY
360
2FF
102
}
330
1B
100
AcDbEntity
 67
     1
  8
0
100
AcDbViewport
 10
-81.39265480745144
 20
-57.56240012996614
 30
0.0
 40
18432.0
 41
13390.70011677063
 68
     1
 69
     1
 12
-81.39265480745144
 22
-57.56240012996614
 13
0.0
 23
0.0
 14
0.5
 24
0.5
 15
0.0
 25
0.0
 16
0.0
 26
0.0
 36
1.0
 17
0.0
 27
0.0
 37
0.0
 42
50.0
 43
0.0
 44
0.0
 45
13390.70011677063
 50
0.0
 51
0.0
 72
   100
 90
   557152
  1

281
     0
 71
     1
 74
     0
110
0.0
120
0.0
130
0.0
111
1.0
121
0.0
131
0.0
112
0.0
122
1.0
132
0.0
 79
     0
146
0.0
170
     0
  0
ENDSEC
  0
SECTION
  2
OBJECTS
  0
DICTIONARY
  5
C
330
0
100
AcDbDictionary
281
     1
  3
ACAD_DETAILVIEWSTYLE
350
346
  3
ACAD_GROUP
350
D
  3
ACAD_LAYOUT
350
1A
  3
ACAD_MATERIAL
350
43
  3
ACAD_MLEADERSTYLE
350
6B
  3
ACAD_MLINESTYLE
350
17
  3
ACAD_PLOTSETTINGS
350
19
  3
ACAD_PLOTSTYLENAME
350
E
  3
ACAD_SCALELIST
350
47
  3
ACAD_SECTIONVIEWSTYLE
350
347
  3
ACAD_TABLESTYLE
350
69
  3
ACAD_VISUALSTYLE
350
2A
  3
ACDB_RECOMPOSE_DATA
350
343
  3
AcDbVariableDictionary
350
303
  0
DICTIONARY
  5
301
330
8
100
AcDbDictionary
280
     1
281
     1
  3
ACAD_XREC_ROUNDTRIP
360
302
  0
DICTIONARY
  5
2FF
330
B2
100
AcDbDictionary
280
     1
281
     1
  3
ACAD_XREC_ROUNDTRIP
360
300
  0
DICTIONARY
  5
346
102
{ACAD_REACTORS
330
C
102
}
330
C
100
AcDbDictionary
281
     1
  0
DICTIONARY
  5
D
102
{ACAD_REACTORS
330
C
102
}
330
C
100
AcDbDictionary
281
     1
  0
DICTIONARY
  5
1A
102
{ACAD_REACTORS
330
C
102
}
330
C
100
AcDbDictionary
281
     1
  3
Layout1
350
1E
  3
Layout2
350
26
  3
Model
350
22
  0
DICTIONARY
  5
43
102
{ACAD_REACTORS
330
C
102
}
330
C
100
AcDbDictionary
281
     1
  3
ByBlock
350
45
  3
ByLayer
350
44
  3
Global
350
46
  0
DICTIONARY
  5
6B
102
{ACAD_REACTORS
330
C
102
}
330
C
100
AcDbDictionary
281
     1
  3
Standard
350
6C
  0
DICTIONARY
  5
17
102
{ACAD_REACTORS
330
C
102
}
330
C
100
AcDbDictionary
281
     1
  3
Standard
350
18
  0
DICTIONARY
  5
19
102
{ACAD_REACTORS
330
C
102
}
330
C
100
AcDbDictionary
281
     1
  0
ACDBDICTIONARYWDFLT
  5
E
102
{ACAD_REACTORS
330
C
102
}
330
C
100
AcDbDictionary
281
     1
  3
Normal
350
F
100
AcDbDictionaryWithDefault
340
F
  0
DICTIONARY
  5
47
102
{ACAD_REACTORS
330
C
102
}
330
C
100
AcDbDictionary
281
     1
  3
A0
350
48
  3
A1
350
49
  3
A2
350
4A
  3
A3
350
4B
  3
A4
350
4C
  3
A5
350
4D
  3
A6
350
4E
  3
A7
350
4F
  3
A8
350
50
  3
A9
350
51
  3
B0
350
52
  3
B1
350
53
  3
B2
350
54
  3
B3
350
55
  3
B4
350
56
  3
B5
350
57
  3
B6
350
58
  3
B7
350
59
  3
B8
350
5A
  3
B9
350
5B
  3
C0
350
5C
  3
C1
350
5D
  3
C2
350
5E
  3
C3
350
5F
  3
C4
350
60
  3
C5
350
61
  3
C6
350
62
  3
C7
350
63
  3
C8
350
64
  3
C9
350
65
  3
D0
350
66
  3
D1
350
67
  3
D2
350
68
  0
DICTIONARY
  5
347
102
{ACAD_REACTORS
330
C
102
}
330
C
100
AcDbDictionary
281
     1
  0
DICTIONARY
  5
69
102
{ACAD_REACTORS
330
C
102
}
330
C
100
AcDbDictionary
281
     1
  3
Standard
350
6A
  0
DICTIONARY
  5
2A
102
{ACAD_REACTORS
330
C
102
}
330
C
100
AcDbDictionary
281
     1
  3
2dWireframe
350
2F
  3
Basic
350
32
  3
Brighten
350
36
  3
ColorChange
350
3A
  3
Conceptual
350
34
  3
Dim
350
35
  3
EdgeColorOff
350
3D
  3
Facepattern
350
39
  3
Flat
350
2B
  3
FlatWithEdges
350
2C
  3
Gouraud
350
2D
  3
GouraudWithEdges
350
2E
  3
Hidden
350
31
  3
JitterOff
350
3B
  3
Linepattern
350
38
  3
OverhangOff
350
3C
  3
Realistic
350
33
  3
Shaded
350
42
  3
Shaded with edges
350
41
  3
Shades of Gray
350
3E
  3
Sketchy
350
3F
  3
Thicken
350
37
  3
Wireframe
350
30
  3
X-Ray
350
40
  0
XRECORD
  5
343
102
{ACAD_REACTORS
330
C
102
}
330
C
100
AcDbXrecord
280
     1
 90
        1
330
6A
  0
DICTIONARY
  5
303
102
{ACAD_REACTORS
330
C
102
}
330
C
100
AcDbDictionary
281
     1
  3
CANNOSCALE
350
304
  3
CMLEADERSTYLE
350
345
  3
CTABLESTYLE
350
344
  3
MSLTSCALE
350
305
  3
XCLIPFRAME
350
306
  0
XRECORD
  5
302
102
{ACAD_REACTORS
330
301
102
}
330
301
100
AcDbXrecord
280
     1
102
VTR_0.000_0.000_1.000_1.000_VISUALSTYLE
340
2F
102
VTR_0.000_0.000_1.000_1.000_GRIDDISPLAY
 70
     3
102
VTR_0.000_0.000_1.000_1.000_GRIDMAJOR
 70
     5
102
VTR_0.000_0.000_1.000_1.000_DEFAULTLIGHTING
280
     1
102
VTR_0.000_0.000_1.000_1.000_DEFAULTLIGHTINGTYPE
 70
     1
102
VTR_0.000_0.000_1.000_1.000_BRIGHTNESS
141
0.0
102
VTR_0.000_0.000_1.000_1.000_CONTRAST
142
0.0
  0
XRECORD
  5
300
102
{ACAD_REACTORS
330
2FF
102
}
330
2FF
100
AcDbXrecord
280
     1
102
VISUALSTYLE
340
2F
102
GRIDDISPLAY
 70
     2
102
GRIDMAJOR
 70
     5
102
DEFAULTLIGHTING
280
     1
102
DEFAULTLIGHTINGTYPE
 70
     1
102
BRIGHTNESS
141
0.0
102
CONTRAST
142
0.0
  0
LAYOUT
  5
1E
102
{ACAD_REACTORS
330
1A
102
}
330
1A
100
AcDbPlotSettings
  1

  2
none_device
  4

  6

 40
0.0
 41
0.0
 42
0.0
 43
0.0
 44
0.0
 45
0.0
 46
0.0
 47
0.0
 48
0.0
 49
0.0
140
0.0
141
0.0
142
1.0
143
1.0
 70
   688
 72
     0
 73
     0
 74
     5
  7

 75
    16
 76
     0
 77
     2
 78
   300
147
1.0
148
0.0
149
0.0
100
AcDbLayout
  1
Layout1
 70
     0
 71
     1
 10
0.0
 20
0.0
 11
12.0
 21
9.0
 12
0.0
 22
0.0
 32
0.0
 14
1.000000000000000E+20
 24
1.000000000000000E+20
 34
1.000000000000000E+20
 15
-1.000000000000000E+20
 25
-1.000000000000000E+20
 35
-1.000000000000000E+20
146
0.0
 13
0.0
 23
0.0
 33
0.0
 16
1.0
 26
0.0
 36
0.0
 17
0.0
 27
1.0
 37
0.0
 76
     0
330
1B
331
B2
  0
LAYOUT
  5
26
102
{ACAD_REACTORS
330
1A
102
}
330
1A
100
AcDbPlotSettings
  1

  2
none_device
  4

  6

 40
0.0
 41
0.0
 42
0.0
 43
0.0
 44
0.0
 45
0.0
 46
0.0
 47
0.0
 48
0.0
 49
0.0
140
0.0
141
0.0
142
1.0
143
1.0
 70
   688
 72
     0
 73
     0
 74
     5
  7

 75
    16
 76
     0
 77
     2
 78
   300
147
1.0
148
0.0
149
0.0
100
AcDbLayout
  1
Layout2
 70
     1
 71
     2
 10
0.0
 20
0.0
 11
0.0
 21
0.0
 12
0.0
 22
0.0
 32
0.0
 14
0.0
 24
0.0
 34
0.0
 15
0.0
 25
0.0
 35
0.0
146
0.0
 13
0.0
 23
0.0
 33
0.0
 16
1.0
 26
0.0
 36
0.0
 17
0.0
 27
1.0
 37
0.0
 76
     0
330
23
  0
LAYOUT
  5
22
102
{ACAD_REACTORS
330
1A
102
}
330
1A
100
AcDbPlotSettings
  1

  2
none_device
  4
Letter_(8.50_x_11.00_Inches)
  6

 40
6.35
 41
6.35
 42
6.35000508
 43
6.35000508
 44
215.9
 45
279.4
 46
0.0
 47
0.0
 48
0.0
 49
0.0
140
0.0
141
0.0
142
1.0
143
1.0
 70
  1712
 72
     0
 73
     0
 74
     0
  7

 75
     0
 76
     0
 77
     2
 78
   300
147
1.0
148
0.0
149
0.0
100
AcDbLayout
  1
Model
 70
     1
 71
     0
 10
-2920.0
 20
-2000.0
 11
2920.0
 21
2000.0
 12
0.0
 22
0.0
 32
0.0
 14
-9297.392654807452
 24
-6752.91245851528
 34
0.0
 15
9134.60734519255
 25
6637.787658255348
 35
0.0
146
0.0
 13
0.0
 23
0.0
 33
0.0
 16
1.0
 26
0.0
 36
0.0
 17
0.0
 27
1.0
 37
0.0
 76
     0
330
1F
331
29
  0
MATERIAL
  5
45
102
{ACAD_REACTORS
330
43
102
}
102
{ACAD_XDICTIONARY
360
339
102
}
330
43
100
AcDbMaterial
  1
ByBlock
  0
MATERIAL
  5
44
102
{ACAD_REACTORS
330
43
102
}
102
{ACAD_XDICTIONARY
360
337
102
}
330
43
100
AcDbMaterial
  1
ByLayer
  0
MATERIAL
  5
46
102
{ACAD_REACTORS
330
43
102
}
102
{ACAD_XDICTIONARY
360
33B
102
}
330
43
100
AcDbMaterial
  1
Global
  0
MLEADERSTYLE
  5
6C
102
{ACAD_REACTORS
330
6B
102
}
102
{ACAD_XDICTIONARY
360
341
102
}
330
6B
100
AcDbMLeaderStyle
170
     2
171
     1
172
     0
 90
        2
 40
0.0
 41
0.0
173
     1
 91
-1056964608
340
14
 92
       -2
290
     1
 42
0.09
291
     1
 43
0.36
  3
Standard
341
0
 44
0.18
300

342
11
174
     1
178
     6
175
     1
176
     0
 93
-1056964608
 45
0.18
292
     0
297
     0
 46
0.18
343
0
 94
-1056964608
 47
1.0
 49
1.0
140
1.0
293
     1
141
0.0
294
     1
177
     0
142
1.0
295
     0
296
     0
143
0.125
1001
ACAD_MLEADERVER
1070
     2
  0
MLINESTYLE
  5
18
102
{ACAD_REACTORS
330
17
102
}
330
17
100
AcDbMlineStyle
  2
Standard
 70
     0
  3

 62
   256
 51
90.0
 52
90.0
 71
     2
 49
0.5
 62
   256
  6
BYLAYER
 49
-0.5
 62
   256
  6
BYLAYER
  0
ACDBPLACEHOLDER
  5
F
102
{ACAD_REACTORS
330
E
102
}
330
E
  0
SCALE
  5
48
102
{ACAD_REACTORS
330
47
102
}
330
47
100
AcDbScale
 70
     0
300
1:1
140
1.0
141
1.0
290
     1
  0
SCALE
  5
49
102
{ACAD_REACTORS
330
47
102
}
330
47
100
AcDbScale
 70
     0
300
1:2
140
1.0
141
2.0
290
     0
  0
SCALE
  5
4A
102
{ACAD_REACTORS
330
47
102
}
330
47
100
AcDbScale
 70
     0
300
1:4
140
1.0
141
4.0
290
     0
  0
SCALE
  5
4B
102
{ACAD_REACTORS
330
47
102
}
330
47
100
AcDbScale
 70
     0
300
1:5
140
1.0
141
5.0
290
     0
  0
SCALE
  5
4C
102
{ACAD_REACTORS
330
47
102
}
330
47
100
AcDbScale
 70
     0
300
1:8
140
1.0
141
8.0
290
     0
  0
SCALE
  5
4D
102
{ACAD_REACTORS
330
47
102
}
330
47
100
AcDbScale
 70
     0
300
1:10
140
1.0
141
10.0
290
     0
  0
SCALE
  5
4E
102
{ACAD_REACTORS
330
47
102
}
330
47
100
AcDbScale
 70
     0
300
1:16
140
1.0
141
16.0
290
     0
  0
SCALE
  5
4F
102
{ACAD_REACTORS
330
47
102
}
330
47
100
AcDbScale
 70
     0
300
1:20
140
1.0
141
20.0
290
     0
  0
SCALE
  5
50
102
{ACAD_REACTORS
330
47
102
}
330
47
100
AcDbScale
 70
     0
300
1:30
140
1.0
141
30.0
290
     0
  0
SCALE
  5
51
102
{ACAD_REACTORS
330
47
102
}
330
47
100
AcDbScale
 70
     0
300
1:40
140
1.0
141
40.0
290
     0
  0
SCALE
  5
52
102
{ACAD_REACTORS
330
47
102
}
330
47
100
AcDbScale
 70
     0
300
1:50
140
1.0
141
50.0
290
     0
  0
SCALE
  5
53
102
{ACAD_REACTORS
330
47
102
}
330
47
100
AcDbScale
 70
     0
300
1:100
140
1.0
141
100.0
290
     0
  0
SCALE
  5
54
102
{ACAD_REACTORS
330
47
102
}
330
47
100
AcDbScale
 70
     0
300
2:1
140
2.0
141
1.0
290
     0
  0
SCALE
  5
55
102
{ACAD_REACTORS
330
47
102
}
330
47
100
AcDbScale
 70
     0
300
4:1
140
4.0
141
1.0
290
     0
  0
SCALE
  5
56
102
{ACAD_REACTORS
330
47
102
}
330
47
100
AcDbScale
 70
     0
300
8:1
140
8.0
141
1.0
290
     0
  0
SCALE
  5
57
102
{ACAD_REACTORS
330
47
102
}
330
47
100
AcDbScale
 70
     0
300
10:1
140
10.0
141
1.0
290
     0
  0
SCALE
  5
58
102
{ACAD_REACTORS
330
47
102
}
330
47
100
AcDbScale
 70
     0
300
100:1
140
100.0
141
1.0
290
     0
  0
SCALE
  5
59
102
{ACAD_REACTORS
330
47
102
}
330
47
100
AcDbScale
 70
     0
300
1/128" = 1'-0"
140
0.0078125
141
12.0
290
     0
  0
SCALE
  5
5A
102
{ACAD_REACTORS
330
47
102
}
330
47
100
AcDbScale
 70
     0
300
1/64" = 1'-0"
140
0.015625
141
12.0
290
     0
  0
SCALE
  5
5B
102
{ACAD_REACTORS
330
47
102
}
330
47
100
AcDbScale
 70
     0
300
1/32" = 1'-0"
140
0.03125
141
12.0
290
     0
  0
SCALE
  5
5C
102
{ACAD_REACTORS
330
47
102
}
330
47
100
AcDbScale
 70
     0
300
1/16" = 1'-0"
140
0.0625
141
12.0
290
     0
  0
SCALE
  5
5D
102
{ACAD_REACTORS
330
47
102
}
330
47
100
AcDbScale
 70
     0
300
3/32" = 1'-0"
140
0.09375
141
12.0
290
     0
  0
SCALE
  5
5E
102
{ACAD_REACTORS
330
47
102
}
330
47
100
AcDbScale
 70
     0
300
1/8" = 1'-0"
140
0.125
141
12.0
290
     0
  0
SCALE
  5
5F
102
{ACAD_REACTORS
330
47
102
}
330
47
100
AcDbScale
 70
     0
300
3/16" = 1'-0"
140
0.1875
141
12.0
290
     0
  0
SCALE
  5
60
102
{ACAD_REACTORS
330
47
102
}
330
47
100
AcDbScale
 70
     0
300
1/4" = 1'-0"
140
0.25
141
12.0
290
     0
  0
SCALE
  5
61
102
{ACAD_REACTORS
330
47
102
}
330
47
100
AcDbScale
 70
     0
300
3/8" = 1'-0"
140
0.375
141
12.0
290
     0
  0
SCALE
  5
62
102
{ACAD_REACTORS
330
47
102
}
330
47
100
AcDbScale
 70
     0
300
1/2" = 1'-0"
140
0.5
141
12.0
290
     0
  0
SCALE
  5
63
102
{ACAD_REACTORS
330
47
102
}
330
47
100
AcDbScale
 70
     0
300
3/4" = 1'-0"
140
0.75
141
12.0
290
     0
  0
SCALE
  5
64
102
{ACAD_REACTORS
330
47
102
}
330
47
100
AcDbScale
 70
     0
300
1" = 1'-0"
140
1.0
141
12.0
290
     0
  0
SCALE
  5
65
102
{ACAD_REACTORS
330
47
102
}
330
47
100
AcDbScale
 70
     0
300
1-1/2" = 1'-0"
140
1.5
141
12.0
290
     0
  0
SCALE
  5
66
102
{ACAD_REACTORS
330
47
102
}
330
47
100
AcDbScale
 70
     0
300
3" = 1'-0"
140
3.0
141
12.0
290
     0
  0
SCALE
  5
67
102
{ACAD_REACTORS
330
47
102
}
330
47
100
AcDbScale
 70
     0
300
6" = 1'-0"
140
6.0
141
12.0
290
     0
  0
SCALE
  5
68
102
{ACAD_REACTORS
330
47
102
}
330
47
100
AcDbScale
 70
     0
300
1'-0" = 1'-0"
140
12.0
141
12.0
290
     0
  0
TABLESTYLE
  5
6A
102
{ACAD_REACTORS
330
69
102
}
102
{ACAD_XDICTIONARY
360
33D
102
}
330
69
100
AcDbTableStyle
  3
Standard
 70
     0
 71
     0
 40
0.06
 41
0.06
280
     0
281
     0
  7
Standard
140
0.18
170
     2
 62
     0
 63
   257
283
     0
274
    -2
284
     1
 64
     0
275
    -2
285
     1
 65
     0
276
    -2
286
     1
 66
     0
277
    -2
287
     1
 67
     0
278
    -2
288
     1
 68
     0
279
    -2
289
     1
 69
     0
  7
Standard
140
0.25
170
     5
 62
     0
 63
   257
283
     0
274
    -2
284
     1
 64
     0
275
    -2
285
     1
 65
     0
276
    -2
286
     1
 66
     0
277
    -2
287
     1
 67
     0
278
    -2
288
     1
 68
     0
279
    -2
289
     1
 69
     0
  7
Standard
140
0.18
170
     5
 62
     0
 63
   257
283
     0
274
    -2
284
     1
 64
     0
275
    -2
285
     1
 65
     0
276
    -2
286
     1
 66
     0
277
    -2
287
     1
 67
     0
278
    -2
288
     1
 68
     0
279
    -2
289
     1
 69
     0
  0
VISUALSTYLE
  5
2F
102
{ACAD_REACTORS
330
2A
102
}
102
{ACAD_XDICTIONARY
360
30F
102
}
330
2A
100
AcDbVisualStyle
  2
2dWireframe
 70
     4
 71
     0
 72
     2
 73
     0
 90
        0
 40
0.6
 41
30.0
 62
     5
 63
     7
421
 16777215
 74
     1
 91
        4
 64
     7
 65
   257
 75
     1
175
     1
 42
1.0
 92
        0
 66
   257
 43
1.0
 76
     1
 77
     6
 78
     2
 67
     7
 79
     5
170
     0
171
     0
290
     0
174
     0
 93
        1
 44
0.0
173
     0
291
     0
 45
0.0
1001
ACAD
1000
AcDbSavedByObjectVersion
1070
     0
  0
VISUALSTYLE
  5
32
102
{ACAD_REACTORS
330
2A
102
}
102
{ACAD_XDICTIONARY
360
315
102
}
330
2A
100
AcDbVisualStyle
  2
Basic
 70
     7
 71
     1
 72
     0
 73
     1
 90
        0
 40
0.6
 41
30.0
 62
     5
 63
     7
421
 16777215
 74
     0
 91
        4
 64
     7
 65
   257
 75
     1
175
     1
 42
1.0
 92
        8
 66
     7
 43
1.0
 76
     1
 77
     6
 78
     2
 67
     7
 79
     5
170
     0
171
     0
290
     0
174
     0
 93
        1
 44
0.0
173
     0
291
     1
 45
0.0
1001
ACAD
1000
AcDbSavedByObjectVersion
1070
     0
  0
VISUALSTYLE
  5
36
102
{ACAD_REACTORS
330
2A
102
}
102
{ACAD_XDICTIONARY
360
31D
102
}
330
2A
100
AcDbVisualStyle
  2
Brighten
 70
    12
 71
     2
 72
     2
 73
     0
 90
        0
 40
0.6
 41
30.0
 62
     5
 63
     7
421
 16777215
 74
     1
 91
        4
 64
     7
 65
   257
 75
     1
175
     1
 42
1.0
 92
        8
 66
     7
 43
1.0
 76
     1
 77
     6
 78
     2
 67
     7
 79
     5
170
     0
171
     0
290
     0
174
     0
 93
        1
 44
50.0
173
     0
291
     1
 45
0.0
1001
ACAD
1000
AcDbSavedByObjectVersion
1070
     0
  0
VISUALSTYLE
  5
3A
102
{ACAD_REACTORS
330
2A
102
}
102
{ACAD_XDICTIONARY
360
325
102
}
330
2A
100
AcDbVisualStyle
  2
ColorChange
 70
    16
 71
     2
 72
     2
 73
     3
 90
        0
 40
0.6
 41
30.0
 62
     5
 63
     8
421
  8421504
 74
     1
 91
        4
 64
     7
 65
   257
 75
     1
175
     1
 42
1.0
 92
        8
 66
     8
424
  8421504
 43
1.0
 76
     1
 77
     6
 78
     2
 67
     7
 79
     5
170
     0
171
     0
290
     0
174
     0
 93
        1
 44
0.0
173
     0
291
     1
 45
0.0
1001
ACAD
1000
AcDbSavedByObjectVersion
1070
     0
  0
VISUALSTYLE
  5
34
102
{ACAD_REACTORS
330
2A
102
}
102
{ACAD_XDICTIONARY
360
319
102
}
330
2A
100
AcDbVisualStyle
  2
Conceptual
 70
     9
 71
     3
 72
     2
 73
     0
 90
        0
 40
0.6
 41
30.0
 62
     5
 63
     7
421
 16777215
 74
     2
 91
        2
 64
     7
 65
   257
 75
     1
175
     1
 42
179.0
 92
        8
 66
     7
 43
1.0
 76
     1
 77
     6
 78
     2
 67
     7
 79
     3
170
     0
171
     0
290
     0
174
     0
 93
        1
 44
0.0
173
     0
291
     0
 45
0.0
1001
ACAD
1000
AcDbSavedByObjectVersion
1070
     0
  0
VISUALSTYLE
  5
35
102
{ACAD_REACTORS
330
2A
102
}
102
{ACAD_XDICTIONARY
360
31B
102
}
330
2A
100
AcDbVisualStyle
  2
Dim
 70
    11
 71
     2
 72
     2
 73
     0
 90
        0
 40
0.6
 41
30.0
 62
     5
 63
     7
421
 16777215
 74
     1
 91
        4
 64
     7
 65
   257
 75
     1
175
     1
 42
1.0
 92
        8
 66
     7
 43
1.0
 76
     1
 77
     6
 78
     2
 67
     7
 79
     5
170
     0
171
     0
290
     0
174
     0
 93
        1
 44
-50.0
173
     0
291
     1
 45
0.0
1001
ACAD
1000
AcDbSavedByObjectVersion
1070
     0
  0
VISUALSTYLE
  5
3D
102
{ACAD_REACTORS
330
2A
102
}
102
{ACAD_XDICTIONARY
360
32B
102
}
330
2A
100
AcDbVisualStyle
  2
EdgeColorOff
 70
    22
 71
     2
 72
     2
 73
     0
 90
        0
 40
0.6
 41
30.0
 62
     5
 63
     7
421
 16777215
 74
     1
 91
        4
 64
     7
 65
   257
 75
     1
175
     1
 42
1.0
 92
        8
 66
     7
 43
1.0
 76
     1
 77
     6
 78
     2
 67
     7
 79
     5
170
     0
171
     0
290
     0
174
     0
 93
        1
 44
0.0
173
     0
291
     1
 45
0.0
1001
ACAD
1000
AcDbSavedByObjectVersion
1070
     0
  0
VISUALSTYLE
  5
39
102
{ACAD_REACTORS
330
2A
102
}
102
{ACAD_XDICTIONARY
360
323
102
}
330
2A
100
AcDbVisualStyle
  2
Facepattern
 70
    15
 71
     2
 72
     2
 73
     0
 90
        0
 40
0.6
 41
30.0
 62
     5
 63
     7
421
 16777215
 74
     1
 91
        4
 64
     7
 65
   257
 75
     1
175
     1
 42
1.0
 92
        8
 66
     7
 43
1.0
 76
     1
 77
     6
 78
     2
 67
     7
 79
     5
170
     0
171
     0
290
     0
174
     0
 93
        1
 44
0.0
173
     0
291
     1
 45
0.0
1001
ACAD
1000
AcDbSavedByObjectVersion
1070
     0
  0
VISUALSTYLE
  5
2B
102
{ACAD_REACTORS
330
2A
102
}
102
{ACAD_XDICTIONARY
360
307
102
}
330
2A
100
AcDbVisualStyle
  2
Flat
 70
     0
 71
     2
 72
     1
 73
     1
 90
        2
 40
0.6
 41
30.0
 62
     5
 63
     7
421
 16777215
 74
     0
 91
        0
 64
     7
 65
   257
 75
     1
175
     1
 42
1.0
 92
        8
 66
     7
 43
1.0
 76
     1
 77
     6
 78
     2
 67
     7
 79
     5
170
     0
171
     0
290
     0
174
     0
 93
       13
 44
0.0
173
     0
291
     1
 45
0.0
1001
ACAD
1000
AcDbSavedByObjectVersion
1070
     0
  0
VISUALSTYLE
  5
2C
102
{ACAD_REACTORS
330
2A
102
}
102
{ACAD_XDICTIONARY
360
309
102
}
330
2A
100
AcDbVisualStyle
  2
FlatWithEdges
 70
     1
 71
     2
 72
     1
 73
     1
 90
        2
 40
0.6
 41
30.0
 62
     5
 63
     7
421
 16777215
 74
     1
 91
        0
 64
     7
 65
   257
 75
     1
175
     1
 42
1.0
 92
        0
 66
   257
 43
1.0
 76
     1
 77
     6
 78
     2
 67
     7
 79
     5
170
     0
171
     0
290
     0
174
     0
 93
       13
 44
0.0
173
     0
291
     1
 45
0.0
1001
ACAD
1000
AcDbSavedByObjectVersion
1070
     0
  0
VISUALSTYLE
  5
2D
102
{ACAD_REACTORS
330
2A
102
}
102
{ACAD_XDICTIONARY
360
30B
102
}
330
2A
100
AcDbVisualStyle
  2
Gouraud
 70
     2
 71
     2
 72
     2
 73
     1
 90
        2
 40
0.6
 41
30.0
 62
     5
 63
     7
421
 16777215
 74
     0
 91
        0
 64
     7
 65
   257
 75
     1
175
     1
 42
1.0
 92
        0
 66
     7
 43
1.0
 76
     1
 77
     6
 78
     2
 67
     7
 79
     5
170
     0
171
     0
290
     0
174
     0
 93
       13
 44
0.0
173
     0
291
     1
 45
0.0
1001
ACAD
1000
AcDbSavedByObjectVersion
1070
     0
  0
VISUALSTYLE
  5
2E
102
{ACAD_REACTORS
330
2A
102
}
102
{ACAD_XDICTIONARY
360
30D
102
}
330
2A
100
AcDbVisualStyle
  2
GouraudWithEdges
 70
     3
 71
     2
 72
     2
 73
     1
 90
        2
 40
0.6
 41
30.0
 62
     5
 63
     7
421
 16777215
 74
     1
 91
        0
 64
     7
 65
   257
 75
     1
175
     1
 42
1.0
 92
        0
 66
   257
 43
1.0
 76
     1
 77
     6
 78
     2
 67
     7
 79
     5
170
     0
171
     0
290
     0
174
     0
 93
       13
 44
0.0
173
     0
291
     1
 45
0.0
1001
ACAD
1000
AcDbSavedByObjectVersion
1070
     0
  0
VISUALSTYLE
  5
31
102
{ACAD_REACTORS
330
2A
102
}
102
{ACAD_XDICTIONARY
360
313
102
}
330
2A
100
AcDbVisualStyle
  2
Hidden
 70
     6
 71
     1
 72
     2
 73
     2
 90
        0
 40
0.6
 41
30.0
 62
     5
 63
     7
421
 16777215
 74
     2
 91
        2
 64
     7
 65
   257
 75
     2
175
     1
 42
40.0
 92
        0
 66
   257
 43
1.0
 76
     1
 77
     6
 78
     2
 67
     7
 79
     3
170
     0
171
     0
290
     0
174
     0
 93
        1
 44
0.0
173
     0
291
     0
 45
0.0
1001
ACAD
1000
AcDbSavedByObjectVersion
1070
     0
  0
VISUALSTYLE
  5
3B
102
{ACAD_REACTORS
330
2A
102
}
102
{ACAD_XDICTIONARY
360
327
102
}
330
2A
100
AcDbVisualStyle
  2
JitterOff
 70
    20
 71
     2
 72
     2
 73
     0
 90
        0
 40
0.6
 41
30.0
 62
     5
 63
     7
421
 16777215
 74
     1
 91
        4
 64
     7
 65
   257
 75
     1
175
     1
 42
1.0
 92
       10
 66
     7
 43
1.0
 76
     1
 77
     6
 78
     2
 67
     7
 79
     5
170
     0
171
     0
290
     0
174
     0
 93
        1
 44
0.0
173
     0
291
     1
 45
0.0
1001
ACAD
1000
AcDbSavedByObjectVersion
1070
     0
  0
VISUALSTYLE
  5
38
102
{ACAD_REACTORS
330
2A
102
}
102
{ACAD_XDICTIONARY
360
321
102
}
330
2A
100
AcDbVisualStyle
  2
Linepattern
 70
    14
 71
     2
 72
     2
 73
     0
 90
        0
 40
0.6
 41
30.0
 62
     5
 63
     7
421
 16777215
 74
     1
 91
        4
 64
     7
 65
   257
 75
     7
175
     7
 42
1.0
 92
        8
 66
     7
 43
1.0
 76
     1
 77
     6
 78
     2
 67
     7
 79
     5
170
     0
171
     0
290
     0
174
     0
 93
        1
 44
0.0
173
     0
291
     1
 45
0.0
1001
ACAD
1000
AcDbSavedByObjectVersion
1070
     0
  0
VISUALSTYLE
  5
3C
102
{ACAD_REACTORS
330
2A
102
}
102
{ACAD_XDICTIONARY
360
329
102
}
330
2A
100
AcDbVisualStyle
  2
OverhangOff
 70
    21
 71
     2
 72
     2
 73
     0
 90
        0
 40
0.6
 41
30.0
 62
     5
 63
     7
421
 16777215
 74
     1
 91
        4
 64
     7
 65
   257
 75
     1
175
     1
 42
1.0
 92
        9
 66
     7
 43
1.0
 76
     1
 77
     6
 78
     2
 67
     7
 79
     5
170
     0
171
     0
290
     0
174
     0
 93
        1
 44
0.0
173
     0
291
     1
 45
0.0
1001
ACAD
1000
AcDbSavedByObjectVersion
1070
     0
  0
VISUALSTYLE
  5
33
102
{ACAD_REACTORS
330
2A
102
}
102
{ACAD_XDICTIONARY
360
317
102
}
330
2A
100
AcDbVisualStyle
  2
Realistic
 70
     8
 71
     2
 72
     3
 73
     0
 90
        2
 40
0.6
 41
30.0
 62
     5
 63
     7
421
 16777215
 74
     0
 91
        0
 64
     7
 65
   257
 75
     1
175
     1
 42
1.0
 92
        8
 66
   257
 43
1.0
 76
     1
 77
     6
 78
     2
 67
     7
 79
     3
170
     0
171
     0
290
     0
174
     0
 93
       13
 44
0.0
173
     0
291
     0
 45
0.0
1001
ACAD
1000
AcDbSavedByObjectVersion
1070
     0
  0
VISUALSTYLE
  5
42
102
{ACAD_REACTORS
330
2A
102
}
102
{ACAD_XDICTIONARY
360
335
102
}
330
2A
100
AcDbVisualStyle
  2
Shaded
 70
    27
 71
     2
 72
     2
 73
     1
 90
        2
 40
0.6
 41
30.0
 62
     5
 63
     7
421
 16777215
 74
     0
 91
        4
 64
     7
 65
   257
 75
     1
175
     1
 42
1.0
 92
        8
 66
   257
 43
1.0
 76
     1
 77
     6
 78
     2
 67
     8
425
  7895160
 79
     3
170
     0
171
     0
290
     0
174
     0
 93
        5
 44
0.0
173
     0
291
     0
 45
0.0
1001
ACAD
1000
AcDbSavedByObjectVersion
1070
     0
  0
VISUALSTYLE
  5
41
102
{ACAD_REACTORS
330
2A
102
}
102
{ACAD_XDICTIONARY
360
333
102
}
330
2A
100
AcDbVisualStyle
  2
Shaded with edges
 70
    26
 71
     2
 72
     2
 73
     1
 90
        2
 40
0.6
 41
30.0
 62
     5
 63
     7
421
 16777215
 74
     1
 91
       10
 64
     7
 65
   257
 75
     2
175
     1
 42
1.0
 92
        8
 66
   257
 43
1.0
 76
     1
 77
     6
 78
     2
 67
     7
 79
     3
170
     0
171
     0
290
     0
174
     0
 93
        5
 44
0.0
173
     0
291
     0
 45
0.0
1001
ACAD
1000
AcDbSavedByObjectVersion
1070
     0
  0
VISUALSTYLE
  5
3E
102
{ACAD_REACTORS
330
2A
102
}
102
{ACAD_XDICTIONARY
360
32D
102
}
330
2A
100
AcDbVisualStyle
  2
Shades of Gray
 70
    23
 71
     2
 72
     2
 73
     3
 90
        0
 40
0.6
 41
30.0
 62
     5
 63
     7
421
 16777215
 74
     2
 91
        2
 64
     7
 65
     7
 75
     1
175
     1
 42
40.0
 92
        8
 66
     7
 43
1.0
 76
     1
 77
     6
 78
     2
 67
     7
 79
     3
170
     0
171
     0
290
     0
174
     0
 93
        1
 44
0.0
173
     0
291
     0
 45
0.0
1001
ACAD
1000
AcDbSavedByObjectVersion
1070
     0
  0
VISUALSTYLE
  5
3F
102
{ACAD_REACTORS
330
2A
102
}
102
{ACAD_XDICTIONARY
360
32F
102
}
330
2A
100
AcDbVisualStyle
  2
Sketchy
 70
    24
 71
     1
 72
     2
 73
     2
 90
        0
 40
0.6
 41
30.0
 62
     5
 63
     7
421
 16777215
 74
     2
 91
        2
 64
     7
 65
     7
 75
     1
175
     1
 42
40.0
 92
       11
 66
     7
 43
1.0
 76
     1
 77
     6
 78
     2
 67
     7
 79
     6
170
     0
171
     0
290
     0
174
     0
 93
        1
 44
0.0
173
     0
291
     0
 45
0.0
1001
ACAD
1000
AcDbSavedByObjectVersion
1070
     0
  0
VISUALSTYLE
  5
37
102
{ACAD_REACTORS
330
2A
102
}
102
{ACAD_XDICTIONARY
360
31F
102
}
330
2A
100
AcDbVisualStyle
  2
Thicken
 70
    13
 71
     2
 72
     2
 73
     0
 90
        0
 40
0.6
 41
30.0
 62
     5
 63
     7
421
 16777215
 74
     1
 91
        4
 64
     7
 65
   257
 75
     1
175
     1
 42
1.0
 92
       12
 66
     7
 43
1.0
 76
     1
 77
     6
 78
     2
 67
     7
 79
     5
170
     0
171
     0
290
     0
174
     0
 93
        1
 44
0.0
173
     0
291
     1
 45
0.0
1001
ACAD
1000
AcDbSavedByObjectVersion
1070
     0
  0
VISUALSTYLE
  5
30
102
{ACAD_REACTORS
330
2A
102
}
102
{ACAD_XDICTIONARY
360
311
102
}
330
2A
100
AcDbVisualStyle
  2
Wireframe
 70
     5
 71
     0
 72
     2
 73
     0
 90
        0
 40
0.6
 41
30.0
 62
     5
 63
     7
421
 16777215
 74
     1
 91
        4
 64
     7
 65
   257
 75
     1
175
     1
 42
1.0
 92
        0
 66
   257
 43
1.0
 76
     1
 77
     6
 78
     2
 67
     7
 79
     3
170
     0
171
     0
290
     0
174
     0
 93
        1
 44
0.0
173
     0
291
     0
 45
0.0
1001
ACAD
1000
AcDbSavedByObjectVersion
1070
     0
  0
VISUALSTYLE
  5
40
102
{ACAD_REACTORS
330
2A
102
}
102
{ACAD_XDICTIONARY
360
331
102
}
330
2A
100
AcDbVisualStyle
  2
X-Ray
 70
    25
 71
     2
 72
     2
 73
     1
 90
        1
 40
0.5
 41
30.0
 62
     5
 63
     7
421
 16777215
 74
     1
 91
        0
 64
     7
 65
   257
 75
     1
175
     1
 42
1.0
 92
        8
 66
     7
 43
1.0
 76
     1
 77
     6
 78
     2
 67
     7
 79
     3
170
     0
171
     0
290
     0
174
     0
 93
       13
 44
0.0
173
     0
291
     0
 45
0.0
1001
ACAD
1000
AcDbSavedByObjectVersion
1070
     0
  0
DICTIONARYVAR
  5
304
102
{ACAD_REACTORS
330
303
102
}
330
303
100
DictionaryVariables
280
     0
  1
1:1
  0
DICTIONARYVAR
  5
345
102
{ACAD_REACTORS
330
303
102
}
330
303
100
DictionaryVariables
280
     0
  1
Standard
  0
DICTIONARYVAR
  5
344
102
{ACAD_REACTORS
330
303
102
}
330
303
100
DictionaryVariables
280
     0
  1
Standard
  0
DICTIONARYVAR
  5
305
102
{ACAD_REACTORS
330
303
102
}
330
303
100
DictionaryVariables
280
     0
  1
1
  0
DICTIONARYVAR
  5
306
102
{ACAD_REACTORS
330
303
102
}
330
303
100
DictionaryVariables
280
     0
  1
2
  0
DICTIONARY
  5
339
330
45
100
AcDbDictionary
280
     1
281
     1
  3
ACAD_XREC_ROUNDTRIP
360
33A
  0
DICTIONARY
  5
337
330
44
100
AcDbDictionary
280
     1
281
     1
  3
ACAD_XREC_ROUNDTRIP
360
338
  0
DICTIONARY
  5
33B
330
46
100
AcDbDictionary
280
     1
281
     1
  3
ACAD_XREC_ROUNDTRIP
360
33C
  0
DICTIONARY
  5
341
330
6C
100
AcDbDictionary
280
     1
281
     1
  3
ACAD_XREC_ROUNDTRIP
360
342
  0
DICTIONARY
  5
33D
330
6A
100
AcDbDictionary
280
     1
281
     1
  3
ACAD_ROUNDTRIP_2008_TABLESTYLE_CELLSTYLEMAP
360
33F
  3
ACAD_XREC_ROUNDTRIP
360
33E
  0
DICTIONARY
  5
30F
330
2F
100
AcDbDictionary
280
     1
281
     1
  3
ACAD_XREC_ROUNDTRIP
360
310
  0
DICTIONARY
  5
315
330
32
100
AcDbDictionary
280
     1
281
     1
  3
ACAD_XREC_ROUNDTRIP
360
316
  0
DICTIONARY
  5
31D
330
36
100
AcDbDictionary
280
     1
281
     1
  3
ACAD_XREC_ROUNDTRIP
360
31E
  0
DICTIONARY
  5
325
330
3A
100
AcDbDictionary
280
     1
281
     1
  3
ACAD_XREC_ROUNDTRIP
360
326
  0
DICTIONARY
  5
319
330
34
100
AcDbDictionary
280
     1
281
     1
  3
ACAD_XREC_ROUNDTRIP
360
31A
  0
DICTIONARY
  5
31B
330
35
100
AcDbDictionary
280
     1
281
     1
  3
ACAD_XREC_ROUNDTRIP
360
31C
  0
DICTIONARY
  5
32B
330
3D
100
AcDbDictionary
280
     1
281
     1
  3
ACAD_XREC_ROUNDTRIP
360
32C
  0
DICTIONARY
  5
323
330
39
100
AcDbDictionary
280
     1
281
     1
  3
ACAD_XREC_ROUNDTRIP
360
324
  0
DICTIONARY
  5
307
330
2B
100
AcDbDictionary
280
     1
281
     1
  3
ACAD_XREC_ROUNDTRIP
360
308
  0
DICTIONARY
  5
309
330
2C
100
AcDbDictionary
280
     1
281
     1
  3
ACAD_XREC_ROUNDTRIP
360
30A
  0
DICTIONARY
  5
30B
330
2D
100
AcDbDictionary
280
     1
281
     1
  3
ACAD_XREC_ROUNDTRIP
360
30C
  0
DICTIONARY
  5
30D
330
2E
100
AcDbDictionary
280
     1
281
     1
  3
ACAD_XREC_ROUNDTRIP
360
30E
  0
DICTIONARY
  5
313
330
31
100
AcDbDictionary
280
     1
281
     1
  3
ACAD_XREC_ROUNDTRIP
360
314
  0
DICTIONARY
  5
327
330
3B
100
AcDbDictionary
280
     1
281
     1
  3
ACAD_XREC_ROUNDTRIP
360
328
  0
DICTIONARY
  5
321
330
38
100
AcDbDictionary
280
     1
281
     1
  3
ACAD_XREC_ROUNDTRIP
360
322
  0
DICTIONARY
  5
329
330
3C
100
AcDbDictionary
280
     1
281
     1
  3
ACAD_XREC_ROUNDTRIP
360
32A
  0
DICTIONARY
  5
317
330
33
100
AcDbDictionary
280
     1
281
     1
  3
ACAD_XREC_ROUNDTRIP
360
318
  0
DICTIONARY
  5
335
330
42
100
AcDbDictionary
280
     1
281
     1
  3
ACAD_XREC_ROUNDTRIP
360
336
  0
DICTIONARY
  5
333
330
41
100
AcDbDictionary
280
     1
281
     1
  3
ACAD_XREC_ROUNDTRIP
360
334
  0
DICTIONARY
  5
32D
330
3E
100
AcDbDictionary
280
     1
281
     1
  3
ACAD_XREC_ROUNDTRIP
360
32E
  0
DICTIONARY
  5
32F
330
3F
100
AcDbDictionary
280
     1
281
     1
  3
ACAD_XREC_ROUNDTRIP
360
330
  0
DICTIONARY
  5
31F
330
37
100
AcDbDictionary
280
     1
281
     1
  3
ACAD_XREC_ROUNDTRIP
360
320
  0
DICTIONARY
  5
311
330
30
100
AcDbDictionary
280
     1
281
     1
  3
ACAD_XREC_ROUNDTRIP
360
312
  0
DICTIONARY
  5
331
330
40
100
AcDbDictionary
280
     1
281
     1
  3
ACAD_XREC_ROUNDTRIP
360
332
  0
XRECORD
  5
33A
102
{ACAD_REACTORS
330
339
102
}
330
339
100
AcDbXrecord
280
     1
102
MATERIAL
148
0.0
149
0.0
149
0.0
 93
        0
 94
      127
282
     0
 72
     1
 77
     1
171
     1
175
     1
179
     1
273
     0
  0
XRECORD
  5
338
102
{ACAD_REACTORS
330
337
102
}
330
337
100
AcDbXrecord
280
     1
102
MATERIAL
148
0.0
149
0.0
149
0.0
 93
        0
 94
      127
282
     0
 72
     1
 77
     1
171
     1
175
     1
179
     1
273
     0
  0
XRECORD
  5
33C
102
{ACAD_REACTORS
330
33B
102
}
330
33B
100
AcDbXrecord
280
     1
102
MATERIAL
148
0.0
149
0.0
149
0.0
 93
        0
 94
      127
282
     0
 72
     1
 77
     1
171
     1
175
     1
179
     1
273
     0
  0
XRECORD
  5
342
102
{ACAD_REACTORS
330
341
102
}
330
341
100
AcDbXrecord
280
     1
102
ACAD_ROUNDTRIP_2010_MLEADER_STYLE
  0
CELLSTYLEMAP
  5
33F
102
{ACAD_REACTORS
330
33D
102
}
330
33D
100
AcDbCellStyleMap
 90
        3
300
CELLSTYLE
  1
TABLEFORMAT_BEGIN
 90
        5
170
     1
 91
        0
 92
    32768
 62
   257
 93
        1
300
CONTENTFORMAT
  1
CONTENTFORMAT_BEGIN
 90
        0
 91
        0
 92
        4
 93
        0
300

 40
0.0
140
1.0
 94
        5
 62
     0
340
11
144
0.25
309
CONTENTFORMAT_END
171
     1
301
MARGIN
  1
CELLMARGIN_BEGIN
 40
0.06
 40
0.06
 40
0.06
 40
0.06
 40
0.06
 40
0.06
309
CELLMARGIN_END
 94
        6
 95
        1
302
GRIDFORMAT
  1
GRIDFORMAT_BEGIN
 90
        0
 91
        1
 62
     0
 92
       -2
340
14
 93
        0
 40
0.045
309
GRIDFORMAT_END
 95
        2
302
GRIDFORMAT
  1
GRIDFORMAT_BEGIN
 90
        0
 91
        1
 62
     0
 92
       -2
340
14
 93
        0
 40
0.045
309
GRIDFORMAT_END
 95
        4
302
GRIDFORMAT
  1
GRIDFORMAT_BEGIN
 90
        0
 91
        1
 62
     0
 92
       -2
340
14
 93
        0
 40
0.045
309
GRIDFORMAT_END
 95
        8
302
GRIDFORMAT
  1
GRIDFORMAT_BEGIN
 90
        0
 91
        1
 62
     0
 92
       -2
340
14
 93
        0
 40
0.045
309
GRIDFORMAT_END
 95
       16
302
GRIDFORMAT
  1
GRIDFORMAT_BEGIN
 90
        0
 91
        1
 62
     0
 92
       -2
340
14
 93
        0
 40
0.045
309
GRIDFORMAT_END
 95
       32
302
GRIDFORMAT
  1
GRIDFORMAT_BEGIN
 90
        0
 91
        1
 62
     0
 92
       -2
340
14
 93
        0
 40
0.045
309
GRIDFORMAT_END
309
TABLEFORMAT_END
  1
CELLSTYLE_BEGIN
 90
        1
 91
        1
300
_TITLE
309
CELLSTYLE_END
300
CELLSTYLE
  1
TABLEFORMAT_BEGIN
 90
        5
170
     1
 91
        0
 92
        0
 62
   257
 93
        1
300
CONTENTFORMAT
  1
CONTENTFORMAT_BEGIN
 90
        0
 91
        0
 92
        4
 93
        0
300

 40
0.0
140
1.0
 94
        5
 62
     0
340
11
144
0.18
309
CONTENTFORMAT_END
171
     1
301
MARGIN
  1
CELLMARGIN_BEGIN
 40
0.06
 40
0.06
 40
0.06
 40
0.06
 40
0.06
 40
0.06
309
CELLMARGIN_END
 94
        6
 95
        1
302
GRIDFORMAT
  1
GRIDFORMAT_BEGIN
 90
        0
 91
        1
 62
     0
 92
       -2
340
14
 93
        0
 40
0.045
309
GRIDFORMAT_END
 95
        2
302
GRIDFORMAT
  1
GRIDFORMAT_BEGIN
 90
        0
 91
        1
 62
     0
 92
       -2
340
14
 93
        0
 40
0.045
309
GRIDFORMAT_END
 95
        4
302
GRIDFORMAT
  1
GRIDFORMAT_BEGIN
 90
        0
 91
        1
 62
     0
 92
       -2
340
14
 93
        0
 40
0.045
309
GRIDFORMAT_END
 95
        8
302
GRIDFORMAT
  1
GRIDFORMAT_BEGIN
 90
        0
 91
        1
 62
     0
 92
       -2
340
14
 93
        0
 40
0.045
309
GRIDFORMAT_END
 95
       16
302
GRIDFORMAT
  1
GRIDFORMAT_BEGIN
 90
        0
 91
        1
 62
     0
 92
       -2
340
14
 93
        0
 40
0.045
309
GRIDFORMAT_END
 95
       32
302
GRIDFORMAT
  1
GRIDFORMAT_BEGIN
 90
        0
 91
        1
 62
     0
 92
       -2
340
14
 93
        0
 40
0.045
309
GRIDFORMAT_END
309
TABLEFORMAT_END
  1
CELLSTYLE_BEGIN
 90
        2
 91
        1
300
_HEADER
309
CELLSTYLE_END
300
CELLSTYLE
  1
TABLEFORMAT_BEGIN
 90
        5
170
     1
 91
        0
 92
        0
 62
   257
 93
        1
300
CONTENTFORMAT
  1
CONTENTFORMAT_BEGIN
 90
        0
 91
        0
 92
        4
 93
        0
300

 40
0.0
140
1.0
 94
        2
 62
     0
340
11
144
0.18
309
CONTENTFORMAT_END
171
     1
301
MARGIN
  1
CELLMARGIN_BEGIN
 40
0.06
 40
0.06
 40
0.06
 40
0.06
 40
0.06
 40
0.06
309
CELLMARGIN_END
 94
        6
 95
        1
302
GRIDFORMAT
  1
GRIDFORMAT_BEGIN
 90
        0
 91
        1
 62
     0
 92
       -2
340
14
 93
        0
 40
0.045
309
GRIDFORMAT_END
 95
        2
302
GRIDFORMAT
  1
GRIDFORMAT_BEGIN
 90
        0
 91
        1
 62
     0
 92
       -2
340
14
 93
        0
 40
0.045
309
GRIDFORMAT_END
 95
        4
302
GRIDFORMAT
  1
GRIDFORMAT_BEGIN
 90
        0
 91
        1
 62
     0
 92
       -2
340
14
 93
        0
 40
0.045
309
GRIDFORMAT_END
 95
        8
302
GRIDFORMAT
  1
GRIDFORMAT_BEGIN
 90
        0
 91
        1
 62
     0
 92
       -2
340
14
 93
        0
 40
0.045
309
GRIDFORMAT_END
 95
       16
302
GRIDFORMAT
  1
GRIDFORMAT_BEGIN
 90
        0
 91
        1
 62
     0
 92
       -2
340
14
 93
        0
 40
0.045
309
GRIDFORMAT_END
 95
       32
302
GRIDFORMAT
  1
GRIDFORMAT_BEGIN
 90
        0
 91
        1
 62
     0
 92
       -2
340
14
 93
        0
 40
0.045
309
GRIDFORMAT_END
309
TABLEFORMAT_END
  1
CELLSTYLE_BEGIN
 90
        3
 91
        2
300
_DATA
309
CELLSTYLE_END
  0
XRECORD
  5
33E
102
{ACAD_REACTORS
330
33D
102
}
330
33D
100
AcDbXrecord
280
     1
102
ACAD_ROUNDTRIP_PRE2007_TABLESTYLE
 90
        4
 91
        0
  1

 92
        4
 93
        0
  2

 94
        4
 95
        0
  3

  0
XRECORD
  5
310
102
{ACAD_REACTORS
330
30F
102
}
330
30F
100
AcDbXrecord
280
     1
102
RTVSPropertyOp0
 70
     1
102
RTVSPropertyOp1
 70
     1
102
RTVSPropertyOp2
 70
     1
102
RTVSPropertyOp3
 70
     1
102
RTVSPropertyOp4
 70
     1
102
RTVSPropertyOp5
 70
     1
102
RTVSPropertyOp6
 70
     1
102
RTVSPropertyOp7
 70
     1
102
RTVSPropertyOp8
 70
     1
102
RTVSPropertyOp9
 70
     1
102
RTVSPropertyOp10
 70
     1
102
RTVSPropertyOp11
 70
     1
102
RTVSPropertyOp12
 70
     1
102
RTVSPropertyOp13
 70
     1
102
RTVSPropertyOp14
 70
     1
102
RTVSPropertyOp15
 70
     1
102
RTVSPropertyOp16
 70
     1
102
RTVSPropertyOp17
 70
     1
102
RTVSPropertyOp18
 70
     1
102
RTVSPropertyOp19
 70
     1
102
RTVSPropertyOp20
 70
     1
102
RTVSPropertyOp21
 70
     1
102
RTVSPropertyOp22
 70
     1
102
RTVSPropertyOp23
 70
     1
102
RTVSPropertyOp24
 70
     1
102
RTVSPropertyOp25
 70
     1
102
RTVSPropertyOp26
 70
     1
102
RTVSPropertyOp27
 70
     1
102
RTVSPropertyOp28
 70
     1
102
RTVSPropertyOp29
 70
     1
102
RTVSPropertyOp30
 70
     1
102
RTVSPropertyOp31
 70
     1
102
RTVSPropertyOp32
 70
     1
102
RTVSPropertyOp33
 70
     1
102
RTVSPropertyOp34
 70
     1
102
RTVSPropertyOp35
 70
     1
102
RTVSPropertyOp36
 70
     1
102
RTVSPropertyOp37
 70
     1
102
RTVSPropertyOp38
 70
     1
102
RTVSPropertyOp39
 70
     1
102
RTVSPropertyOp40
 70
     1
102
RTVSPropertyOp41
 70
     1
102
RTVSPropertyOp42
 70
     1
102
RTVSPropertyOp43
 70
     1
102
RTVSPropertyOp44
 70
     1
102
RTVSPropertyOp45
 70
     1
102
RTVSPropertyOp46
 70
     1
102
RTVSPropertyOp47
 70
     1
102
RTVSPropertyOp48
 70
     1
102
RTVSPropertyOp49
 70
     1
102
RTVSPropertyOp50
 70
     1
102
RTVSPropertyOp51
 70
     0
102
RTVSPropertyOp52
 70
     0
102
RTVSPropertyOp53
 70
     1
102
RTVSPropertyOp54
 70
     1
102
RTVSPropertyOp55
 70
     1
102
RTVSPropertyOp56
 70
     1
102
RTVSPropertyOp57
 70
     1
102
RTVSPost2010Prop28
280
     1
102
RTVSPost2010PropOp28
 70
     1
102
RTVSPost2010Prop29
280
     1
102
RTVSPost2010PropOp29
 70
     1
102
RTVSPost2010Prop30
280
     0
102
RTVSPost2010PropOp30
 70
     1
102
RTVSPost2010Prop31
280
     0
102
RTVSPost2010PropOp31
 70
     1
102
RTVSPost2010Prop32
280
     0
102
RTVSPost2010PropOp32
 70
     1
102
RTVSPost2010Prop33
280
     0
102
RTVSPost2010PropOp33
 70
     1
102
RTVSPost2010Prop34
280
     0
102
RTVSPost2010PropOp34
 70
     1
102
RTVSPost2010Prop35
280
     0
102
RTVSPost2010PropOp35
 70
     1
102
RTVSPost2010Prop36
280
     0
102
RTVSPost2010PropOp36
 70
     1
102
RTVSPost2010Prop37
 90
       50
102
RTVSPost2010PropOp37
 70
     1
102
RTVSPost2010Prop38
140
0.0
102
RTVSPost2010PropOp38
 70
     1
102
RTVSPost2010Prop39
140
1.0
102
RTVSPost2010PropOp39
 70
     1
102
RTVSPost2010Prop40
 90
        0
102
RTVSPost2010PropOp40
 70
     1
102
RTVSPost2010Prop41ColorIndex
 90
       18
102
RTVSPost2010Prop41ColorRGB
 90
        0
102
RTVSPost2010PropOp41
 70
     1
102
RTVSPost2010Prop42
 90
       50
102
RTVSPost2010PropOp42
 70
     1
102
RTVSPost2010Prop43
 90
        3
102
RTVSPost2010PropOp43
 70
     1
102
RTVSPost2010Prop44ColorIndex
 90
        5
102
RTVSPost2010Prop44ColorRGB
 90
      255
102
RTVSPost2010PropOp44
 70
     1
102
RTVSPost2010Prop45
280
     0
102
RTVSPost2010PropOp45
 70
     1
102
RTVSPost2010Prop46
 90
       50
102
RTVSPost2010PropOp46
 70
     1
102
RTVSPost2010Prop47
 90
       50
102
RTVSPost2010PropOp47
 70
     1
102
RTVSPost2010Prop48
 90
       50
102
RTVSPost2010PropOp48
 70
     1
102
RTVSPost2010Prop49
280
     0
102
RTVSPost2010PropOp49
 70
     1
102
RTVSPost2010Prop50
 90
       50
102
RTVSPost2010PropOp50
 70
     1
102
RTVSPost2010Prop51ColorIndex
 90
      256
102
RTVSPost2010Prop51ColorRGB
 90
-16777216
102
RTVSPost2010PropOp51
 70
     0
102
RTVSPost2010Prop52
140
1.0
102
RTVSPost2010PropOp52
 70
     0
102
RTVSPost2010Prop53
 90
        2
102
RTVSPost2010PropOp53
 70
     1
102
RTVSPost2010Prop54
  1
strokes_ogs.tif
102
RTVSPost2010PropOp54
 70
     1
102
RTVSPost2010Prop55
280
     0
102
RTVSPost2010PropOp55
 70
     1
102
RTVSPost2010Prop56
140
1.0
102
RTVSPost2010PropOp56
 70
     1
102
RTVSPost2010Prop57
140
1.0
102
RTVSPost2010PropOp57
 70
     1
  0
XRECORD
  5
316
102
{ACAD_REACTORS
330
315
102
}
330
315
100
AcDbXrecord
280
     1
102
RTVSPropertyOp0
 70
     1
102
RTVSPropertyOp1
 70
     1
102
RTVSPropertyOp2
 70
     1
102
RTVSPropertyOp3
 70
     1
102
RTVSPropertyOp4
 70
     1
102
RTVSPropertyOp5
 70
     1
102
RTVSPropertyOp6
 70
     1
102
RTVSPropertyOp7
 70
     1
102
RTVSPropertyOp8
 70
     1
102
RTVSPropertyOp9
 70
     1
102
RTVSPropertyOp10
 70
     1
102
RTVSPropertyOp11
 70
     1
102
RTVSPropertyOp12
 70
     1
102
RTVSPropertyOp13
 70
     1
102
RTVSPropertyOp14
 70
     1
102
RTVSPropertyOp15
 70
     1
102
RTVSPropertyOp16
 70
     1
102
RTVSPropertyOp17
 70
     1
102
RTVSPropertyOp18
 70
     1
102
RTVSPropertyOp19
 70
     1
102
RTVSPropertyOp20
 70
     1
102
RTVSPropertyOp21
 70
     1
102
RTVSPropertyOp22
 70
     1
102
RTVSPropertyOp23
 70
     1
102
RTVSPropertyOp24
 70
     1
102
RTVSPropertyOp25
 70
     1
102
RTVSPropertyOp26
 70
     1
102
RTVSPropertyOp27
 70
     1
102
RTVSPropertyOp28
 70
     1
102
RTVSPropertyOp29
 70
     1
102
RTVSPropertyOp30
 70
     1
102
RTVSPropertyOp31
 70
     1
102
RTVSPropertyOp32
 70
     1
102
RTVSPropertyOp33
 70
     1
102
RTVSPropertyOp34
 70
     1
102
RTVSPropertyOp35
 70
     1
102
RTVSPropertyOp36
 70
     1
102
RTVSPropertyOp37
 70
     1
102
RTVSPropertyOp38
 70
     1
102
RTVSPropertyOp39
 70
     1
102
RTVSPropertyOp40
 70
     1
102
RTVSPropertyOp41
 70
     1
102
RTVSPropertyOp42
 70
     1
102
RTVSPropertyOp43
 70
     1
102
RTVSPropertyOp44
 70
     1
102
RTVSPropertyOp45
 70
     1
102
RTVSPropertyOp46
 70
     1
102
RTVSPropertyOp47
 70
     1
102
RTVSPropertyOp48
 70
     1
102
RTVSPropertyOp49
 70
     1
102
RTVSPropertyOp50
 70
     1
102
RTVSPropertyOp51
 70
     0
102
RTVSPropertyOp52
 70
     0
102
RTVSPropertyOp53
 70
     1
102
RTVSPropertyOp54
 70
     1
102
RTVSPropertyOp55
 70
     1
102
RTVSPropertyOp56
 70
     1
102
RTVSPropertyOp57
 70
     1
102
RTVSPost2010Prop28
280
     0
102
RTVSPost2010PropOp28
 70
     1
102
RTVSPost2010Prop29
280
     1
102
RTVSPost2010PropOp29
 70
     1
102
RTVSPost2010Prop30
280
     1
102
RTVSPost2010PropOp30
 70
     1
102
RTVSPost2010Prop31
280
     0
102
RTVSPost2010PropOp31
 70
     1
102
RTVSPost2010Prop32
280
     0
102
RTVSPost2010PropOp32
 70
     1
102
RTVSPost2010Prop33
280
     0
102
RTVSPost2010PropOp33
 70
     1
102
RTVSPost2010Prop34
280
     0
102
RTVSPost2010PropOp34
 70
     1
102
RTVSPost2010Prop35
280
     0
102
RTVSPost2010PropOp35
 70
     1
102
RTVSPost2010Prop36
280
     0
102
RTVSPost2010PropOp36
 70
     1
102
RTVSPost2010Prop37
 90
       50
102
RTVSPost2010PropOp37
 70
     1
102
RTVSPost2010Prop38
140
0.0
102
RTVSPost2010PropOp38
 70
     1
102
RTVSPost2010Prop39
140
1.0
102
RTVSPost2010PropOp39
 70
     1
102
RTVSPost2010Prop40
 90
        0
102
RTVSPost2010PropOp40
 70
     1
102
RTVSPost2010Prop41ColorIndex
 90
       18
102
RTVSPost2010Prop41ColorRGB
 90
        0
102
RTVSPost2010PropOp41
 70
     1
102
RTVSPost2010Prop42
 90
       50
102
RTVSPost2010PropOp42
 70
     1
102
RTVSPost2010Prop43
 90
        3
102
RTVSPost2010PropOp43
 70
     1
102
RTVSPost2010Prop44ColorIndex
 90
        5
102
RTVSPost2010Prop44ColorRGB
 90
      255
102
RTVSPost2010PropOp44
 70
     1
102
RTVSPost2010Prop45
280
     0
102
RTVSPost2010PropOp45
 70
     1
102
RTVSPost2010Prop46
 90
       50
102
RTVSPost2010PropOp46
 70
     1
102
RTVSPost2010Prop47
 90
       50
102
RTVSPost2010PropOp47
 70
     1
102
RTVSPost2010Prop48
 90
       50
102
RTVSPost2010PropOp48
 70
     1
102
RTVSPost2010Prop49
280
     0
102
RTVSPost2010PropOp49
 70
     1
102
RTVSPost2010Prop50
 90
       50
102
RTVSPost2010PropOp50
 70
     1
102
RTVSPost2010Prop51ColorIndex
 90
      256
102
RTVSPost2010Prop51ColorRGB
 90
-16777216
102
RTVSPost2010PropOp51
 70
     0
102
RTVSPost2010Prop52
140
1.0
102
RTVSPost2010PropOp52
 70
     0
102
RTVSPost2010Prop53
 90
        2
102
RTVSPost2010PropOp53
 70
     1
102
RTVSPost2010Prop54
  1
strokes_ogs.tif
102
RTVSPost2010PropOp54
 70
     1
102
RTVSPost2010Prop55
280
     0
102
RTVSPost2010PropOp55
 70
     1
102
RTVSPost2010Prop56
140
1.0
102
RTVSPost2010PropOp56
 70
     1
102
RTVSPost2010Prop57
140
1.0
102
RTVSPost2010PropOp57
 70
     1
  0
XRECORD
  5
31E
102
{ACAD_REACTORS
330
31D
102
}
330
31D
100
AcDbXrecord
280
     1
102
RTVSPropertyOp0
 70
     1
102
RTVSPropertyOp1
 70
     1
102
RTVSPropertyOp2
 70
     1
102
RTVSPropertyOp3
 70
     1
102
RTVSPropertyOp4
 70
     1
102
RTVSPropertyOp5
 70
     1
102
RTVSPropertyOp6
 70
     1
102
RTVSPropertyOp7
 70
     1
102
RTVSPropertyOp8
 70
     1
102
RTVSPropertyOp9
 70
     1
102
RTVSPropertyOp10
 70
     1
102
RTVSPropertyOp11
 70
     1
102
RTVSPropertyOp12
 70
     1
102
RTVSPropertyOp13
 70
     1
102
RTVSPropertyOp14
 70
     1
102
RTVSPropertyOp15
 70
     1
102
RTVSPropertyOp16
 70
     1
102
RTVSPropertyOp17
 70
     1
102
RTVSPropertyOp18
 70
     1
102
RTVSPropertyOp19
 70
     1
102
RTVSPropertyOp20
 70
     1
102
RTVSPropertyOp21
 70
     1
102
RTVSPropertyOp22
 70
     1
102
RTVSPropertyOp23
 70
     1
102
RTVSPropertyOp24
 70
     1
102
RTVSPropertyOp25
 70
     1
102
RTVSPropertyOp26
 70
     1
102
RTVSPropertyOp27
 70
     1
102
RTVSPropertyOp28
 70
     1
102
RTVSPropertyOp29
 70
     1
102
RTVSPropertyOp30
 70
     1
102
RTVSPropertyOp31
 70
     1
102
RTVSPropertyOp32
 70
     1
102
RTVSPropertyOp33
 70
     1
102
RTVSPropertyOp34
 70
     1
102
RTVSPropertyOp35
 70
     1
102
RTVSPropertyOp36
 70
     1
102
RTVSPropertyOp37
 70
     1
102
RTVSPropertyOp38
 70
     1
102
RTVSPropertyOp39
 70
     1
102
RTVSPropertyOp40
 70
     1
102
RTVSPropertyOp41
 70
     1
102
RTVSPropertyOp42
 70
     1
102
RTVSPropertyOp43
 70
     1
102
RTVSPropertyOp44
 70
     1
102
RTVSPropertyOp45
 70
     1
102
RTVSPropertyOp46
 70
     1
102
RTVSPropertyOp47
 70
     1
102
RTVSPropertyOp48
 70
     1
102
RTVSPropertyOp49
 70
     1
102
RTVSPropertyOp50
 70
     1
102
RTVSPropertyOp51
 70
     0
102
RTVSPropertyOp52
 70
     0
102
RTVSPropertyOp53
 70
     1
102
RTVSPropertyOp54
 70
     1
102
RTVSPropertyOp55
 70
     1
102
RTVSPropertyOp56
 70
     1
102
RTVSPropertyOp57
 70
     1
102
RTVSPost2010Prop28
280
     0
102
RTVSPost2010PropOp28
 70
     1
102
RTVSPost2010Prop29
280
     1
102
RTVSPost2010PropOp29
 70
     1
102
RTVSPost2010Prop30
280
     1
102
RTVSPost2010PropOp30
 70
     1
102
RTVSPost2010Prop31
280
     0
102
RTVSPost2010PropOp31
 70
     1
102
RTVSPost2010Prop32
280
     0
102
RTVSPost2010PropOp32
 70
     1
102
RTVSPost2010Prop33
280
     0
102
RTVSPost2010PropOp33
 70
     1
102
RTVSPost2010Prop34
280
     0
102
RTVSPost2010PropOp34
 70
     1
102
RTVSPost2010Prop35
280
     0
102
RTVSPost2010PropOp35
 70
     1
102
RTVSPost2010Prop36
280
     0
102
RTVSPost2010PropOp36
 70
     1
102
RTVSPost2010Prop37
 90
       50
102
RTVSPost2010PropOp37
 70
     1
102
RTVSPost2010Prop38
140
0.0
102
RTVSPost2010PropOp38
 70
     1
102
RTVSPost2010Prop39
140
1.0
102
RTVSPost2010PropOp39
 70
     1
102
RTVSPost2010Prop40
 90
        0
102
RTVSPost2010PropOp40
 70
     1
102
RTVSPost2010Prop41ColorIndex
 90
       18
102
RTVSPost2010Prop41ColorRGB
 90
        0
102
RTVSPost2010PropOp41
 70
     1
102
RTVSPost2010Prop42
 90
       50
102
RTVSPost2010PropOp42
 70
     1
102
RTVSPost2010Prop43
 90
        3
102
RTVSPost2010PropOp43
 70
     1
102
RTVSPost2010Prop44ColorIndex
 90
        5
102
RTVSPost2010Prop44ColorRGB
 90
      255
102
RTVSPost2010PropOp44
 70
     1
102
RTVSPost2010Prop45
280
     0
102
RTVSPost2010PropOp45
 70
     1
102
RTVSPost2010Prop46
 90
       50
102
RTVSPost2010PropOp46
 70
     1
102
RTVSPost2010Prop47
 90
       50
102
RTVSPost2010PropOp47
 70
     1
102
RTVSPost2010Prop48
 90
       50
102
RTVSPost2010PropOp48
 70
     1
102
RTVSPost2010Prop49
280
     0
102
RTVSPost2010PropOp49
 70
     1
102
RTVSPost2010Prop50
 90
       50
102
RTVSPost2010PropOp50
 70
     1
102
RTVSPost2010Prop51ColorIndex
 90
      256
102
RTVSPost2010Prop51ColorRGB
 90
-16777216
102
RTVSPost2010PropOp51
 70
     0
102
RTVSPost2010Prop52
140
1.0
102
RTVSPost2010PropOp52
 70
     0
102
RTVSPost2010Prop53
 90
        2
102
RTVSPost2010PropOp53
 70
     1
102
RTVSPost2010Prop54
  1
strokes_ogs.tif
102
RTVSPost2010PropOp54
 70
     1
102
RTVSPost2010Prop55
280
     0
102
RTVSPost2010PropOp55
 70
     1
102
RTVSPost2010Prop56
140
1.0
102
RTVSPost2010PropOp56
 70
     1
102
RTVSPost2010Prop57
140
1.0
102
RTVSPost2010PropOp57
 70
     1
  0
XRECORD
  5
326
102
{ACAD_REACTORS
330
325
102
}
330
325
100
AcDbXrecord
280
     1
102
RTVSPropertyOp0
 70
     1
102
RTVSPropertyOp1
 70
     1
102
RTVSPropertyOp2
 70
     1
102
RTVSPropertyOp3
 70
     1
102
RTVSPropertyOp4
 70
     1
102
RTVSPropertyOp5
 70
     1
102
RTVSPropertyOp6
 70
     1
102
RTVSPropertyOp7
 70
     1
102
RTVSPropertyOp8
 70
     1
102
RTVSPropertyOp9
 70
     1
102
RTVSPropertyOp10
 70
     1
102
RTVSPropertyOp11
 70
     1
102
RTVSPropertyOp12
 70
     1
102
RTVSPropertyOp13
 70
     1
102
RTVSPropertyOp14
 70
     1
102
RTVSPropertyOp15
 70
     1
102
RTVSPropertyOp16
 70
     1
102
RTVSPropertyOp17
 70
     1
102
RTVSPropertyOp18
 70
     1
102
RTVSPropertyOp19
 70
     1
102
RTVSPropertyOp20
 70
     1
102
RTVSPropertyOp21
 70
     1
102
RTVSPropertyOp22
 70
     1
102
RTVSPropertyOp23
 70
     1
102
RTVSPropertyOp24
 70
     1
102
RTVSPropertyOp25
 70
     1
102
RTVSPropertyOp26
 70
     1
102
RTVSPropertyOp27
 70
     1
102
RTVSPropertyOp28
 70
     1
102
RTVSPropertyOp29
 70
     1
102
RTVSPropertyOp30
 70
     1
102
RTVSPropertyOp31
 70
     1
102
RTVSPropertyOp32
 70
     1
102
RTVSPropertyOp33
 70
     1
102
RTVSPropertyOp34
 70
     1
102
RTVSPropertyOp35
 70
     1
102
RTVSPropertyOp36
 70
     1
102
RTVSPropertyOp37
 70
     1
102
RTVSPropertyOp38
 70
     1
102
RTVSPropertyOp39
 70
     1
102
RTVSPropertyOp40
 70
     1
102
RTVSPropertyOp41
 70
     1
102
RTVSPropertyOp42
 70
     1
102
RTVSPropertyOp43
 70
     1
102
RTVSPropertyOp44
 70
     1
102
RTVSPropertyOp45
 70
     1
102
RTVSPropertyOp46
 70
     1
102
RTVSPropertyOp47
 70
     1
102
RTVSPropertyOp48
 70
     1
102
RTVSPropertyOp49
 70
     1
102
RTVSPropertyOp50
 70
     1
102
RTVSPropertyOp51
 70
     0
102
RTVSPropertyOp52
 70
     0
102
RTVSPropertyOp53
 70
     1
102
RTVSPropertyOp54
 70
     1
102
RTVSPropertyOp55
 70
     1
102
RTVSPropertyOp56
 70
     1
102
RTVSPropertyOp57
 70
     1
102
RTVSPost2010Prop28
280
     0
102
RTVSPost2010PropOp28
 70
     1
102
RTVSPost2010Prop29
280
     1
102
RTVSPost2010PropOp29
 70
     1
102
RTVSPost2010Prop30
280
     1
102
RTVSPost2010PropOp30
 70
     1
102
RTVSPost2010Prop31
280
     0
102
RTVSPost2010PropOp31
 70
     1
102
RTVSPost2010Prop32
280
     0
102
RTVSPost2010PropOp32
 70
     1
102
RTVSPost2010Prop33
280
     0
102
RTVSPost2010PropOp33
 70
     1
102
RTVSPost2010Prop34
280
     0
102
RTVSPost2010PropOp34
 70
     1
102
RTVSPost2010Prop35
280
     0
102
RTVSPost2010PropOp35
 70
     1
102
RTVSPost2010Prop36
280
     0
102
RTVSPost2010PropOp36
 70
     1
102
RTVSPost2010Prop37
 90
       50
102
RTVSPost2010PropOp37
 70
     1
102
RTVSPost2010Prop38
140
0.0
102
RTVSPost2010PropOp38
 70
     1
102
RTVSPost2010Prop39
140
1.0
102
RTVSPost2010PropOp39
 70
     1
102
RTVSPost2010Prop40
 90
        0
102
RTVSPost2010PropOp40
 70
     1
102
RTVSPost2010Prop41ColorIndex
 90
       18
102
RTVSPost2010Prop41ColorRGB
 90
        0
102
RTVSPost2010PropOp41
 70
     1
102
RTVSPost2010Prop42
 90
       50
102
RTVSPost2010PropOp42
 70
     1
102
RTVSPost2010Prop43
 90
        3
102
RTVSPost2010PropOp43
 70
     1
102
RTVSPost2010Prop44ColorIndex
 90
        5
102
RTVSPost2010Prop44ColorRGB
 90
      255
102
RTVSPost2010PropOp44
 70
     1
102
RTVSPost2010Prop45
280
     0
102
RTVSPost2010PropOp45
 70
     1
102
RTVSPost2010Prop46
 90
       50
102
RTVSPost2010PropOp46
 70
     1
102
RTVSPost2010Prop47
 90
       50
102
RTVSPost2010PropOp47
 70
     1
102
RTVSPost2010Prop48
 90
       50
102
RTVSPost2010PropOp48
 70
     1
102
RTVSPost2010Prop49
280
     0
102
RTVSPost2010PropOp49
 70
     1
102
RTVSPost2010Prop50
 90
       50
102
RTVSPost2010PropOp50
 70
     1
102
RTVSPost2010Prop51ColorIndex
 90
      256
102
RTVSPost2010Prop51ColorRGB
 90
-16777216
102
RTVSPost2010PropOp51
 70
     0
102
RTVSPost2010Prop52
140
1.0
102
RTVSPost2010PropOp52
 70
     0
102
RTVSPost2010Prop53
 90
        2
102
RTVSPost2010PropOp53
 70
     1
102
RTVSPost2010Prop54
  1
strokes_ogs.tif
102
RTVSPost2010PropOp54
 70
     1
102
RTVSPost2010Prop55
280
     0
102
RTVSPost2010PropOp55
 70
     1
102
RTVSPost2010Prop56
140
1.0
102
RTVSPost2010PropOp56
 70
     1
102
RTVSPost2010Prop57
140
1.0
102
RTVSPost2010PropOp57
 70
     1
  0
XRECORD
  5
31A
102
{ACAD_REACTORS
330
319
102
}
330
319
100
AcDbXrecord
280
     1
102
RTVSPropertyOp0
 70
     1
102
RTVSPropertyOp1
 70
     1
102
RTVSPropertyOp2
 70
     1
102
RTVSPropertyOp3
 70
     1
102
RTVSPropertyOp4
 70
     1
102
RTVSPropertyOp5
 70
     1
102
RTVSPropertyOp6
 70
     1
102
RTVSPropertyOp7
 70
     1
102
RTVSPropertyOp8
 70
     1
102
RTVSPropertyOp9
 70
     1
102
RTVSPropertyOp10
 70
     1
102
RTVSPropertyOp11
 70
     1
102
RTVSPropertyOp12
 70
     1
102
RTVSPropertyOp13
 70
     1
102
RTVSPropertyOp14
 70
     1
102
RTVSPropertyOp15
 70
     1
102
RTVSPropertyOp16
 70
     1
102
RTVSPropertyOp17
 70
     1
102
RTVSPropertyOp18
 70
     1
102
RTVSPropertyOp19
 70
     1
102
RTVSPropertyOp20
 70
     1
102
RTVSPropertyOp21
 70
     1
102
RTVSPropertyOp22
 70
     1
102
RTVSPropertyOp23
 70
     1
102
RTVSPropertyOp24
 70
     1
102
RTVSPropertyOp25
 70
     1
102
RTVSPropertyOp26
 70
     1
102
RTVSPropertyOp27
 70
     1
102
RTVSPropertyOp28
 70
     1
102
RTVSPropertyOp29
 70
     1
102
RTVSPropertyOp30
 70
     1
102
RTVSPropertyOp31
 70
     1
102
RTVSPropertyOp32
 70
     1
102
RTVSPropertyOp33
 70
     1
102
RTVSPropertyOp34
 70
     1
102
RTVSPropertyOp35
 70
     1
102
RTVSPropertyOp36
 70
     1
102
RTVSPropertyOp37
 70
     1
102
RTVSPropertyOp38
 70
     1
102
RTVSPropertyOp39
 70
     1
102
RTVSPropertyOp40
 70
     1
102
RTVSPropertyOp41
 70
     1
102
RTVSPropertyOp42
 70
     1
102
RTVSPropertyOp43
 70
     1
102
RTVSPropertyOp44
 70
     1
102
RTVSPropertyOp45
 70
     1
102
RTVSPropertyOp46
 70
     1
102
RTVSPropertyOp47
 70
     1
102
RTVSPropertyOp48
 70
     1
102
RTVSPropertyOp49
 70
     1
102
RTVSPropertyOp50
 70
     1
102
RTVSPropertyOp51
 70
     0
102
RTVSPropertyOp52
 70
     0
102
RTVSPropertyOp53
 70
     1
102
RTVSPropertyOp54
 70
     1
102
RTVSPropertyOp55
 70
     1
102
RTVSPropertyOp56
 70
     1
102
RTVSPropertyOp57
 70
     1
102
RTVSPost2010Prop28
280
     0
102
RTVSPost2010PropOp28
 70
     1
102
RTVSPost2010Prop29
280
     1
102
RTVSPost2010PropOp29
 70
     1
102
RTVSPost2010Prop30
280
     1
102
RTVSPost2010PropOp30
 70
     1
102
RTVSPost2010Prop31
280
     0
102
RTVSPost2010PropOp31
 70
     1
102
RTVSPost2010Prop32
280
     0
102
RTVSPost2010PropOp32
 70
     1
102
RTVSPost2010Prop33
280
     0
102
RTVSPost2010PropOp33
 70
     1
102
RTVSPost2010Prop34
280
     0
102
RTVSPost2010PropOp34
 70
     1
102
RTVSPost2010Prop35
280
     0
102
RTVSPost2010PropOp35
 70
     1
102
RTVSPost2010Prop36
280
     0
102
RTVSPost2010PropOp36
 70
     1
102
RTVSPost2010Prop37
 90
       50
102
RTVSPost2010PropOp37
 70
     1
102
RTVSPost2010Prop38
140
0.0
102
RTVSPost2010PropOp38
 70
     1
102
RTVSPost2010Prop39
140
1.0
102
RTVSPost2010PropOp39
 70
     1
102
RTVSPost2010Prop40
 90
        0
102
RTVSPost2010PropOp40
 70
     1
102
RTVSPost2010Prop41ColorIndex
 90
       18
102
RTVSPost2010Prop41ColorRGB
 90
        0
102
RTVSPost2010PropOp41
 70
     1
102
RTVSPost2010Prop42
 90
       50
102
RTVSPost2010PropOp42
 70
     1
102
RTVSPost2010Prop43
 90
        3
102
RTVSPost2010PropOp43
 70
     1
102
RTVSPost2010Prop44ColorIndex
 90
        5
102
RTVSPost2010Prop44ColorRGB
 90
      255
102
RTVSPost2010PropOp44
 70
     1
102
RTVSPost2010Prop45
280
     0
102
RTVSPost2010PropOp45
 70
     1
102
RTVSPost2010Prop46
 90
       50
102
RTVSPost2010PropOp46
 70
     1
102
RTVSPost2010Prop47
 90
       50
102
RTVSPost2010PropOp47
 70
     1
102
RTVSPost2010Prop48
 90
       50
102
RTVSPost2010PropOp48
 70
     1
102
RTVSPost2010Prop49
280
     0
102
RTVSPost2010PropOp49
 70
     1
102
RTVSPost2010Prop50
 90
       50
102
RTVSPost2010PropOp50
 70
     1
102
RTVSPost2010Prop51ColorIndex
 90
      256
102
RTVSPost2010Prop51ColorRGB
 90
-16777216
102
RTVSPost2010PropOp51
 70
     0
102
RTVSPost2010Prop52
140
1.0
102
RTVSPost2010PropOp52
 70
     0
102
RTVSPost2010Prop53
 90
        2
102
RTVSPost2010PropOp53
 70
     1
102
RTVSPost2010Prop54
  1
strokes_ogs.tif
102
RTVSPost2010PropOp54
 70
     1
102
RTVSPost2010Prop55
280
     0
102
RTVSPost2010PropOp55
 70
     1
102
RTVSPost2010Prop56
140
1.0
102
RTVSPost2010PropOp56
 70
     1
102
RTVSPost2010Prop57
140
1.0
102
RTVSPost2010PropOp57
 70
     1
  0
XRECORD
  5
31C
102
{ACAD_REACTORS
330
31B
102
}
330
31B
100
AcDbXrecord
280
     1
102
RTVSPropertyOp0
 70
     1
102
RTVSPropertyOp1
 70
     1
102
RTVSPropertyOp2
 70
     1
102
RTVSPropertyOp3
 70
     1
102
RTVSPropertyOp4
 70
     1
102
RTVSPropertyOp5
 70
     1
102
RTVSPropertyOp6
 70
     1
102
RTVSPropertyOp7
 70
     1
102
RTVSPropertyOp8
 70
     1
102
RTVSPropertyOp9
 70
     1
102
RTVSPropertyOp10
 70
     1
102
RTVSPropertyOp11
 70
     1
102
RTVSPropertyOp12
 70
     1
102
RTVSPropertyOp13
 70
     1
102
RTVSPropertyOp14
 70
     1
102
RTVSPropertyOp15
 70
     1
102
RTVSPropertyOp16
 70
     1
102
RTVSPropertyOp17
 70
     1
102
RTVSPropertyOp18
 70
     1
102
RTVSPropertyOp19
 70
     1
102
RTVSPropertyOp20
 70
     1
102
RTVSPropertyOp21
 70
     1
102
RTVSPropertyOp22
 70
     1
102
RTVSPropertyOp23
 70
     1
102
RTVSPropertyOp24
 70
     1
102
RTVSPropertyOp25
 70
     1
102
RTVSPropertyOp26
 70
     1
102
RTVSPropertyOp27
 70
     1
102
RTVSPropertyOp28
 70
     1
102
RTVSPropertyOp29
 70
     1
102
RTVSPropertyOp30
 70
     1
102
RTVSPropertyOp31
 70
     1
102
RTVSPropertyOp32
 70
     1
102
RTVSPropertyOp33
 70
     1
102
RTVSPropertyOp34
 70
     1
102
RTVSPropertyOp35
 70
     1
102
RTVSPropertyOp36
 70
     1
102
RTVSPropertyOp37
 70
     1
102
RTVSPropertyOp38
 70
     1
102
RTVSPropertyOp39
 70
     1
102
RTVSPropertyOp40
 70
     1
102
RTVSPropertyOp41
 70
     1
102
RTVSPropertyOp42
 70
     1
102
RTVSPropertyOp43
 70
     1
102
RTVSPropertyOp44
 70
     1
102
RTVSPropertyOp45
 70
     1
102
RTVSPropertyOp46
 70
     1
102
RTVSPropertyOp47
 70
     1
102
RTVSPropertyOp48
 70
     1
102
RTVSPropertyOp49
 70
     1
102
RTVSPropertyOp50
 70
     1
102
RTVSPropertyOp51
 70
     0
102
RTVSPropertyOp52
 70
     0
102
RTVSPropertyOp53
 70
     1
102
RTVSPropertyOp54
 70
     1
102
RTVSPropertyOp55
 70
     1
102
RTVSPropertyOp56
 70
     1
102
RTVSPropertyOp57
 70
     1
102
RTVSPost2010Prop28
280
     0
102
RTVSPost2010PropOp28
 70
     1
102
RTVSPost2010Prop29
280
     1
102
RTVSPost2010PropOp29
 70
     1
102
RTVSPost2010Prop30
280
     1
102
RTVSPost2010PropOp30
 70
     1
102
RTVSPost2010Prop31
280
     0
102
RTVSPost2010PropOp31
 70
     1
102
RTVSPost2010Prop32
280
     0
102
RTVSPost2010PropOp32
 70
     1
102
RTVSPost2010Prop33
280
     0
102
RTVSPost2010PropOp33
 70
     1
102
RTVSPost2010Prop34
280
     0
102
RTVSPost2010PropOp34
 70
     1
102
RTVSPost2010Prop35
280
     0
102
RTVSPost2010PropOp35
 70
     1
102
RTVSPost2010Prop36
280
     0
102
RTVSPost2010PropOp36
 70
     1
102
RTVSPost2010Prop37
 90
       50
102
RTVSPost2010PropOp37
 70
     1
102
RTVSPost2010Prop38
140
0.0
102
RTVSPost2010PropOp38
 70
     1
102
RTVSPost2010Prop39
140
1.0
102
RTVSPost2010PropOp39
 70
     1
102
RTVSPost2010Prop40
 90
        0
102
RTVSPost2010PropOp40
 70
     1
102
RTVSPost2010Prop41ColorIndex
 90
       18
102
RTVSPost2010Prop41ColorRGB
 90
        0
102
RTVSPost2010PropOp41
 70
     1
102
RTVSPost2010Prop42
 90
       50
102
RTVSPost2010PropOp42
 70
     1
102
RTVSPost2010Prop43
 90
        3
102
RTVSPost2010PropOp43
 70
     1
102
RTVSPost2010Prop44ColorIndex
 90
        5
102
RTVSPost2010Prop44ColorRGB
 90
      255
102
RTVSPost2010PropOp44
 70
     1
102
RTVSPost2010Prop45
280
     0
102
RTVSPost2010PropOp45
 70
     1
102
RTVSPost2010Prop46
 90
       50
102
RTVSPost2010PropOp46
 70
     1
102
RTVSPost2010Prop47
 90
       50
102
RTVSPost2010PropOp47
 70
     1
102
RTVSPost2010Prop48
 90
       50
102
RTVSPost2010PropOp48
 70
     1
102
RTVSPost2010Prop49
280
     0
102
RTVSPost2010PropOp49
 70
     1
102
RTVSPost2010Prop50
 90
       50
102
RTVSPost2010PropOp50
 70
     1
102
RTVSPost2010Prop51ColorIndex
 90
      256
102
RTVSPost2010Prop51ColorRGB
 90
-16777216
102
RTVSPost2010PropOp51
 70
     0
102
RTVSPost2010Prop52
140
1.0
102
RTVSPost2010PropOp52
 70
     0
102
RTVSPost2010Prop53
 90
        2
102
RTVSPost2010PropOp53
 70
     1
102
RTVSPost2010Prop54
  1
strokes_ogs.tif
102
RTVSPost2010PropOp54
 70
     1
102
RTVSPost2010Prop55
280
     0
102
RTVSPost2010PropOp55
 70
     1
102
RTVSPost2010Prop56
140
1.0
102
RTVSPost2010PropOp56
 70
     1
102
RTVSPost2010Prop57
140
1.0
102
RTVSPost2010PropOp57
 70
     1
  0
XRECORD
  5
32C
102
{ACAD_REACTORS
330
32B
102
}
330
32B
100
AcDbXrecord
280
     1
102
RTVSPropertyOp0
 70
     0
102
RTVSPropertyOp1
 70
     0
102
RTVSPropertyOp2
 70
     0
102
RTVSPropertyOp3
 70
     0
102
RTVSPropertyOp4
 70
     0
102
RTVSPropertyOp5
 70
     0
102
RTVSPropertyOp6
 70
     0
102
RTVSPropertyOp7
 70
     0
102
RTVSPropertyOp8
 70
     0
102
RTVSPropertyOp9
 70
     0
102
RTVSPropertyOp10
 70
     0
102
RTVSPropertyOp11
 70
     0
102
RTVSPropertyOp12
 70
     0
102
RTVSPropertyOp13
 70
     0
102
RTVSPropertyOp14
 70
     2
102
RTVSPropertyOp15
 70
     0
102
RTVSPropertyOp16
 70
     0
102
RTVSPropertyOp17
 70
     0
102
RTVSPropertyOp18
 70
     0
102
RTVSPropertyOp19
 70
     0
102
RTVSPropertyOp20
 70
     0
102
RTVSPropertyOp21
 70
     0
102
RTVSPropertyOp22
 70
     0
102
RTVSPropertyOp23
 70
     0
102
RTVSPropertyOp24
 70
     0
102
RTVSPropertyOp25
 70
     0
102
RTVSPropertyOp26
 70
     0
102
RTVSPropertyOp27
 70
     0
102
RTVSPropertyOp28
 70
     0
102
RTVSPropertyOp29
 70
     0
102
RTVSPropertyOp30
 70
     0
102
RTVSPropertyOp31
 70
     0
102
RTVSPropertyOp32
 70
     0
102
RTVSPropertyOp33
 70
     0
102
RTVSPropertyOp34
 70
     0
102
RTVSPropertyOp35
 70
     0
102
RTVSPropertyOp36
 70
     0
102
RTVSPropertyOp37
 70
     0
102
RTVSPropertyOp38
 70
     0
102
RTVSPropertyOp39
 70
     0
102
RTVSPropertyOp40
 70
     0
102
RTVSPropertyOp41
 70
     0
102
RTVSPropertyOp42
 70
     0
102
RTVSPropertyOp43
 70
     0
102
RTVSPropertyOp44
 70
     0
102
RTVSPropertyOp45
 70
     0
102
RTVSPropertyOp46
 70
     0
102
RTVSPropertyOp47
 70
     0
102
RTVSPropertyOp48
 70
     0
102
RTVSPropertyOp49
 70
     0
102
RTVSPropertyOp50
 70
     0
102
RTVSPropertyOp51
 70
     0
102
RTVSPropertyOp52
 70
     0
102
RTVSPropertyOp53
 70
     0
102
RTVSPropertyOp54
 70
     0
102
RTVSPropertyOp55
 70
     0
102
RTVSPropertyOp56
 70
     0
102
RTVSPropertyOp57
 70
     0
102
RTVSPost2010Prop28
280
     0
102
RTVSPost2010PropOp28
 70
     0
102
RTVSPost2010Prop29
280
     1
102
RTVSPost2010PropOp29
 70
     0
102
RTVSPost2010Prop30
280
     1
102
RTVSPost2010PropOp30
 70
     0
102
RTVSPost2010Prop31
280
     0
102
RTVSPost2010PropOp31
 70
     0
102
RTVSPost2010Prop32
280
     0
102
RTVSPost2010PropOp32
 70
     0
102
RTVSPost2010Prop33
280
     0
102
RTVSPost2010PropOp33
 70
     0
102
RTVSPost2010Prop34
280
     0
102
RTVSPost2010PropOp34
 70
     0
102
RTVSPost2010Prop35
280
     0
102
RTVSPost2010PropOp35
 70
     0
102
RTVSPost2010Prop36
280
     0
102
RTVSPost2010PropOp36
 70
     0
102
RTVSPost2010Prop37
 90
       50
102
RTVSPost2010PropOp37
 70
     0
102
RTVSPost2010Prop38
140
0.0
102
RTVSPost2010PropOp38
 70
     0
102
RTVSPost2010Prop39
140
1.0
102
RTVSPost2010PropOp39
 70
     0
102
RTVSPost2010Prop40
 90
        0
102
RTVSPost2010PropOp40
 70
     0
102
RTVSPost2010Prop41ColorIndex
 90
       18
102
RTVSPost2010Prop41ColorRGB
 90
        0
102
RTVSPost2010PropOp41
 70
     0
102
RTVSPost2010Prop42
 90
       50
102
RTVSPost2010PropOp42
 70
     0
102
RTVSPost2010Prop43
 90
        3
102
RTVSPost2010PropOp43
 70
     0
102
RTVSPost2010Prop44ColorIndex
 90
        5
102
RTVSPost2010Prop44ColorRGB
 90
      255
102
RTVSPost2010PropOp44
 70
     0
102
RTVSPost2010Prop45
280
     0
102
RTVSPost2010PropOp45
 70
     0
102
RTVSPost2010Prop46
 90
       50
102
RTVSPost2010PropOp46
 70
     0
102
RTVSPost2010Prop47
 90
       50
102
RTVSPost2010PropOp47
 70
     0
102
RTVSPost2010Prop48
 90
       50
102
RTVSPost2010PropOp48
 70
     0
102
RTVSPost2010Prop49
280
     0
102
RTVSPost2010PropOp49
 70
     0
102
RTVSPost2010Prop50
 90
       50
102
RTVSPost2010PropOp50
 70
     0
102
RTVSPost2010Prop51ColorIndex
 90
      256
102
RTVSPost2010Prop51ColorRGB
 90
-16777216
102
RTVSPost2010PropOp51
 70
     0
102
RTVSPost2010Prop52
140
1.0
102
RTVSPost2010PropOp52
 70
     0
102
RTVSPost2010Prop53
 90
        2
102
RTVSPost2010PropOp53
 70
     0
102
RTVSPost2010Prop54
  1
strokes_ogs.tif
102
RTVSPost2010PropOp54
 70
     0
102
RTVSPost2010Prop55
280
     0
102
RTVSPost2010PropOp55
 70
     0
102
RTVSPost2010Prop56
140
1.0
102
RTVSPost2010PropOp56
 70
     0
102
RTVSPost2010Prop57
140
1.0
102
RTVSPost2010PropOp57
 70
     0
  0
XRECORD
  5
324
102
{ACAD_REACTORS
330
323
102
}
330
323
100
AcDbXrecord
280
     1
102
RTVSPropertyOp0
 70
     1
102
RTVSPropertyOp1
 70
     1
102
RTVSPropertyOp2
 70
     1
102
RTVSPropertyOp3
 70
     1
102
RTVSPropertyOp4
 70
     1
102
RTVSPropertyOp5
 70
     1
102
RTVSPropertyOp6
 70
     1
102
RTVSPropertyOp7
 70
     1
102
RTVSPropertyOp8
 70
     1
102
RTVSPropertyOp9
 70
     1
102
RTVSPropertyOp10
 70
     1
102
RTVSPropertyOp11
 70
     1
102
RTVSPropertyOp12
 70
     1
102
RTVSPropertyOp13
 70
     1
102
RTVSPropertyOp14
 70
     1
102
RTVSPropertyOp15
 70
     1
102
RTVSPropertyOp16
 70
     1
102
RTVSPropertyOp17
 70
     1
102
RTVSPropertyOp18
 70
     1
102
RTVSPropertyOp19
 70
     1
102
RTVSPropertyOp20
 70
     1
102
RTVSPropertyOp21
 70
     1
102
RTVSPropertyOp22
 70
     1
102
RTVSPropertyOp23
 70
     1
102
RTVSPropertyOp24
 70
     1
102
RTVSPropertyOp25
 70
     1
102
RTVSPropertyOp26
 70
     1
102
RTVSPropertyOp27
 70
     1
102
RTVSPropertyOp28
 70
     1
102
RTVSPropertyOp29
 70
     1
102
RTVSPropertyOp30
 70
     1
102
RTVSPropertyOp31
 70
     1
102
RTVSPropertyOp32
 70
     1
102
RTVSPropertyOp33
 70
     1
102
RTVSPropertyOp34
 70
     1
102
RTVSPropertyOp35
 70
     1
102
RTVSPropertyOp36
 70
     1
102
RTVSPropertyOp37
 70
     1
102
RTVSPropertyOp38
 70
     1
102
RTVSPropertyOp39
 70
     1
102
RTVSPropertyOp40
 70
     1
102
RTVSPropertyOp41
 70
     1
102
RTVSPropertyOp42
 70
     1
102
RTVSPropertyOp43
 70
     1
102
RTVSPropertyOp44
 70
     1
102
RTVSPropertyOp45
 70
     1
102
RTVSPropertyOp46
 70
     1
102
RTVSPropertyOp47
 70
     1
102
RTVSPropertyOp48
 70
     1
102
RTVSPropertyOp49
 70
     1
102
RTVSPropertyOp50
 70
     1
102
RTVSPropertyOp51
 70
     0
102
RTVSPropertyOp52
 70
     0
102
RTVSPropertyOp53
 70
     1
102
RTVSPropertyOp54
 70
     1
102
RTVSPropertyOp55
 70
     1
102
RTVSPropertyOp56
 70
     1
102
RTVSPropertyOp57
 70
     1
102
RTVSPost2010Prop28
280
     0
102
RTVSPost2010PropOp28
 70
     1
102
RTVSPost2010Prop29
280
     1
102
RTVSPost2010PropOp29
 70
     1
102
RTVSPost2010Prop30
280
     1
102
RTVSPost2010PropOp30
 70
     1
102
RTVSPost2010Prop31
280
     0
102
RTVSPost2010PropOp31
 70
     1
102
RTVSPost2010Prop32
280
     0
102
RTVSPost2010PropOp32
 70
     1
102
RTVSPost2010Prop33
280
     0
102
RTVSPost2010PropOp33
 70
     1
102
RTVSPost2010Prop34
280
     0
102
RTVSPost2010PropOp34
 70
     1
102
RTVSPost2010Prop35
280
     0
102
RTVSPost2010PropOp35
 70
     1
102
RTVSPost2010Prop36
280
     0
102
RTVSPost2010PropOp36
 70
     1
102
RTVSPost2010Prop37
 90
       50
102
RTVSPost2010PropOp37
 70
     1
102
RTVSPost2010Prop38
140
0.0
102
RTVSPost2010PropOp38
 70
     1
102
RTVSPost2010Prop39
140
1.0
102
RTVSPost2010PropOp39
 70
     1
102
RTVSPost2010Prop40
 90
        0
102
RTVSPost2010PropOp40
 70
     1
102
RTVSPost2010Prop41ColorIndex
 90
       18
102
RTVSPost2010Prop41ColorRGB
 90
        0
102
RTVSPost2010PropOp41
 70
     1
102
RTVSPost2010Prop42
 90
       50
102
RTVSPost2010PropOp42
 70
     1
102
RTVSPost2010Prop43
 90
        3
102
RTVSPost2010PropOp43
 70
     1
102
RTVSPost2010Prop44ColorIndex
 90
        5
102
RTVSPost2010Prop44ColorRGB
 90
      255
102
RTVSPost2010PropOp44
 70
     1
102
RTVSPost2010Prop45
280
     0
102
RTVSPost2010PropOp45
 70
     1
102
RTVSPost2010Prop46
 90
       50
102
RTVSPost2010PropOp46
 70
     1
102
RTVSPost2010Prop47
 90
       50
102
RTVSPost2010PropOp47
 70
     1
102
RTVSPost2010Prop48
 90
       50
102
RTVSPost2010PropOp48
 70
     1
102
RTVSPost2010Prop49
280
     0
102
RTVSPost2010PropOp49
 70
     1
102
RTVSPost2010Prop50
 90
       50
102
RTVSPost2010PropOp50
 70
     1
102
RTVSPost2010Prop51ColorIndex
 90
      256
102
RTVSPost2010Prop51ColorRGB
 90
-16777216
102
RTVSPost2010PropOp51
 70
     0
102
RTVSPost2010Prop52
140
1.0
102
RTVSPost2010PropOp52
 70
     0
102
RTVSPost2010Prop53
 90
        2
102
RTVSPost2010PropOp53
 70
     1
102
RTVSPost2010Prop54
  1
strokes_ogs.tif
102
RTVSPost2010PropOp54
 70
     1
102
RTVSPost2010Prop55
280
     0
102
RTVSPost2010PropOp55
 70
     1
102
RTVSPost2010Prop56
140
1.0
102
RTVSPost2010PropOp56
 70
     1
102
RTVSPost2010Prop57
140
1.0
102
RTVSPost2010PropOp57
 70
     1
  0
XRECORD
  5
308
102
{ACAD_REACTORS
330
307
102
}
330
307
100
AcDbXrecord
280
     1
102
RTVSPropertyOp0
 70
     1
102
RTVSPropertyOp1
 70
     1
102
RTVSPropertyOp2
 70
     1
102
RTVSPropertyOp3
 70
     1
102
RTVSPropertyOp4
 70
     1
102
RTVSPropertyOp5
 70
     1
102
RTVSPropertyOp6
 70
     1
102
RTVSPropertyOp7
 70
     1
102
RTVSPropertyOp8
 70
     1
102
RTVSPropertyOp9
 70
     1
102
RTVSPropertyOp10
 70
     1
102
RTVSPropertyOp11
 70
     1
102
RTVSPropertyOp12
 70
     1
102
RTVSPropertyOp13
 70
     1
102
RTVSPropertyOp14
 70
     1
102
RTVSPropertyOp15
 70
     1
102
RTVSPropertyOp16
 70
     1
102
RTVSPropertyOp17
 70
     1
102
RTVSPropertyOp18
 70
     1
102
RTVSPropertyOp19
 70
     1
102
RTVSPropertyOp20
 70
     1
102
RTVSPropertyOp21
 70
     1
102
RTVSPropertyOp22
 70
     1
102
RTVSPropertyOp23
 70
     1
102
RTVSPropertyOp24
 70
     1
102
RTVSPropertyOp25
 70
     1
102
RTVSPropertyOp26
 70
     1
102
RTVSPropertyOp27
 70
     1
102
RTVSPropertyOp28
 70
     1
102
RTVSPropertyOp29
 70
     1
102
RTVSPropertyOp30
 70
     1
102
RTVSPropertyOp31
 70
     1
102
RTVSPropertyOp32
 70
     1
102
RTVSPropertyOp33
 70
     1
102
RTVSPropertyOp34
 70
     1
102
RTVSPropertyOp35
 70
     1
102
RTVSPropertyOp36
 70
     1
102
RTVSPropertyOp37
 70
     1
102
RTVSPropertyOp38
 70
     1
102
RTVSPropertyOp39
 70
     1
102
RTVSPropertyOp40
 70
     1
102
RTVSPropertyOp41
 70
     1
102
RTVSPropertyOp42
 70
     1
102
RTVSPropertyOp43
 70
     1
102
RTVSPropertyOp44
 70
     1
102
RTVSPropertyOp45
 70
     1
102
RTVSPropertyOp46
 70
     1
102
RTVSPropertyOp47
 70
     1
102
RTVSPropertyOp48
 70
     1
102
RTVSPropertyOp49
 70
     1
102
RTVSPropertyOp50
 70
     1
102
RTVSPropertyOp51
 70
     0
102
RTVSPropertyOp52
 70
     0
102
RTVSPropertyOp53
 70
     1
102
RTVSPropertyOp54
 70
     1
102
RTVSPropertyOp55
 70
     1
102
RTVSPropertyOp56
 70
     1
102
RTVSPropertyOp57
 70
     1
102
RTVSPost2010Prop28
280
     0
102
RTVSPost2010PropOp28
 70
     1
102
RTVSPost2010Prop29
280
     1
102
RTVSPost2010PropOp29
 70
     1
102
RTVSPost2010Prop30
280
     1
102
RTVSPost2010PropOp30
 70
     1
102
RTVSPost2010Prop31
280
     0
102
RTVSPost2010PropOp31
 70
     1
102
RTVSPost2010Prop32
280
     0
102
RTVSPost2010PropOp32
 70
     1
102
RTVSPost2010Prop33
280
     0
102
RTVSPost2010PropOp33
 70
     1
102
RTVSPost2010Prop34
280
     0
102
RTVSPost2010PropOp34
 70
     1
102
RTVSPost2010Prop35
280
     0
102
RTVSPost2010PropOp35
 70
     1
102
RTVSPost2010Prop36
280
     0
102
RTVSPost2010PropOp36
 70
     1
102
RTVSPost2010Prop37
 90
       50
102
RTVSPost2010PropOp37
 70
     1
102
RTVSPost2010Prop38
140
0.0
102
RTVSPost2010PropOp38
 70
     1
102
RTVSPost2010Prop39
140
1.0
102
RTVSPost2010PropOp39
 70
     1
102
RTVSPost2010Prop40
 90
        0
102
RTVSPost2010PropOp40
 70
     1
102
RTVSPost2010Prop41ColorIndex
 90
       18
102
RTVSPost2010Prop41ColorRGB
 90
        0
102
RTVSPost2010PropOp41
 70
     1
102
RTVSPost2010Prop42
 90
       50
102
RTVSPost2010PropOp42
 70
     1
102
RTVSPost2010Prop43
 90
        3
102
RTVSPost2010PropOp43
 70
     1
102
RTVSPost2010Prop44ColorIndex
 90
        5
102
RTVSPost2010Prop44ColorRGB
 90
      255
102
RTVSPost2010PropOp44
 70
     1
102
RTVSPost2010Prop45
280
     0
102
RTVSPost2010PropOp45
 70
     1
102
RTVSPost2010Prop46
 90
       50
102
RTVSPost2010PropOp46
 70
     1
102
RTVSPost2010Prop47
 90
       50
102
RTVSPost2010PropOp47
 70
     1
102
RTVSPost2010Prop48
 90
       50
102
RTVSPost2010PropOp48
 70
     1
102
RTVSPost2010Prop49
280
     0
102
RTVSPost2010PropOp49
 70
     1
102
RTVSPost2010Prop50
 90
       50
102
RTVSPost2010PropOp50
 70
     1
102
RTVSPost2010Prop51ColorIndex
 90
      256
102
RTVSPost2010Prop51ColorRGB
 90
-16777216
102
RTVSPost2010PropOp51
 70
     0
102
RTVSPost2010Prop52
140
1.0
102
RTVSPost2010PropOp52
 70
     0
102
RTVSPost2010Prop53
 90
        2
102
RTVSPost2010PropOp53
 70
     1
102
RTVSPost2010Prop54
  1
strokes_ogs.tif
102
RTVSPost2010PropOp54
 70
     1
102
RTVSPost2010Prop55
280
     0
102
RTVSPost2010PropOp55
 70
     1
102
RTVSPost2010Prop56
140
1.0
102
RTVSPost2010PropOp56
 70
     1
102
RTVSPost2010Prop57
140
1.0
102
RTVSPost2010PropOp57
 70
     1
  0
XRECORD
  5
30A
102
{ACAD_REACTORS
330
309
102
}
330
309
100
AcDbXrecord
280
     1
102
RTVSPropertyOp0
 70
     1
102
RTVSPropertyOp1
 70
     1
102
RTVSPropertyOp2
 70
     1
102
RTVSPropertyOp3
 70
     1
102
RTVSPropertyOp4
 70
     1
102
RTVSPropertyOp5
 70
     1
102
RTVSPropertyOp6
 70
     1
102
RTVSPropertyOp7
 70
     1
102
RTVSPropertyOp8
 70
     1
102
RTVSPropertyOp9
 70
     1
102
RTVSPropertyOp10
 70
     1
102
RTVSPropertyOp11
 70
     1
102
RTVSPropertyOp12
 70
     1
102
RTVSPropertyOp13
 70
     1
102
RTVSPropertyOp14
 70
     1
102
RTVSPropertyOp15
 70
     1
102
RTVSPropertyOp16
 70
     1
102
RTVSPropertyOp17
 70
     1
102
RTVSPropertyOp18
 70
     1
102
RTVSPropertyOp19
 70
     1
102
RTVSPropertyOp20
 70
     1
102
RTVSPropertyOp21
 70
     1
102
RTVSPropertyOp22
 70
     1
102
RTVSPropertyOp23
 70
     1
102
RTVSPropertyOp24
 70
     1
102
RTVSPropertyOp25
 70
     1
102
RTVSPropertyOp26
 70
     1
102
RTVSPropertyOp27
 70
     1
102
RTVSPropertyOp28
 70
     1
102
RTVSPropertyOp29
 70
     1
102
RTVSPropertyOp30
 70
     1
102
RTVSPropertyOp31
 70
     1
102
RTVSPropertyOp32
 70
     1
102
RTVSPropertyOp33
 70
     1
102
RTVSPropertyOp34
 70
     1
102
RTVSPropertyOp35
 70
     1
102
RTVSPropertyOp36
 70
     1
102
RTVSPropertyOp37
 70
     1
102
RTVSPropertyOp38
 70
     1
102
RTVSPropertyOp39
 70
     1
102
RTVSPropertyOp40
 70
     1
102
RTVSPropertyOp41
 70
     1
102
RTVSPropertyOp42
 70
     1
102
RTVSPropertyOp43
 70
     1
102
RTVSPropertyOp44
 70
     1
102
RTVSPropertyOp45
 70
     1
102
RTVSPropertyOp46
 70
     1
102
RTVSPropertyOp47
 70
     1
102
RTVSPropertyOp48
 70
     1
102
RTVSPropertyOp49
 70
     1
102
RTVSPropertyOp50
 70
     1
102
RTVSPropertyOp51
 70
     0
102
RTVSPropertyOp52
 70
     0
102
RTVSPropertyOp53
 70
     1
102
RTVSPropertyOp54
 70
     1
102
RTVSPropertyOp55
 70
     1
102
RTVSPropertyOp56
 70
     1
102
RTVSPropertyOp57
 70
     1
102
RTVSPost2010Prop28
280
     0
102
RTVSPost2010PropOp28
 70
     1
102
RTVSPost2010Prop29
280
     1
102
RTVSPost2010PropOp29
 70
     1
102
RTVSPost2010Prop30
280
     1
102
RTVSPost2010PropOp30
 70
     1
102
RTVSPost2010Prop31
280
     0
102
RTVSPost2010PropOp31
 70
     1
102
RTVSPost2010Prop32
280
     0
102
RTVSPost2010PropOp32
 70
     1
102
RTVSPost2010Prop33
280
     0
102
RTVSPost2010PropOp33
 70
     1
102
RTVSPost2010Prop34
280
     0
102
RTVSPost2010PropOp34
 70
     1
102
RTVSPost2010Prop35
280
     0
102
RTVSPost2010PropOp35
 70
     1
102
RTVSPost2010Prop36
280
     0
102
RTVSPost2010PropOp36
 70
     1
102
RTVSPost2010Prop37
 90
       50
102
RTVSPost2010PropOp37
 70
     1
102
RTVSPost2010Prop38
140
0.0
102
RTVSPost2010PropOp38
 70
     1
102
RTVSPost2010Prop39
140
1.0
102
RTVSPost2010PropOp39
 70
     1
102
RTVSPost2010Prop40
 90
        0
102
RTVSPost2010PropOp40
 70
     1
102
RTVSPost2010Prop41ColorIndex
 90
       18
102
RTVSPost2010Prop41ColorRGB
 90
        0
102
RTVSPost2010PropOp41
 70
     1
102
RTVSPost2010Prop42
 90
       50
102
RTVSPost2010PropOp42
 70
     1
102
RTVSPost2010Prop43
 90
        3
102
RTVSPost2010PropOp43
 70
     1
102
RTVSPost2010Prop44ColorIndex
 90
        5
102
RTVSPost2010Prop44ColorRGB
 90
      255
102
RTVSPost2010PropOp44
 70
     1
102
RTVSPost2010Prop45
280
     0
102
RTVSPost2010PropOp45
 70
     1
102
RTVSPost2010Prop46
 90
       50
102
RTVSPost2010PropOp46
 70
     1
102
RTVSPost2010Prop47
 90
       50
102
RTVSPost2010PropOp47
 70
     1
102
RTVSPost2010Prop48
 90
       50
102
RTVSPost2010PropOp48
 70
     1
102
RTVSPost2010Prop49
280
     0
102
RTVSPost2010PropOp49
 70
     1
102
RTVSPost2010Prop50
 90
       50
102
RTVSPost2010PropOp50
 70
     1
102
RTVSPost2010Prop51ColorIndex
 90
      256
102
RTVSPost2010Prop51ColorRGB
 90
-16777216
102
RTVSPost2010PropOp51
 70
     0
102
RTVSPost2010Prop52
140
1.0
102
RTVSPost2010PropOp52
 70
     0
102
RTVSPost2010Prop53
 90
        2
102
RTVSPost2010PropOp53
 70
     1
102
RTVSPost2010Prop54
  1
strokes_ogs.tif
102
RTVSPost2010PropOp54
 70
     1
102
RTVSPost2010Prop55
280
     0
102
RTVSPost2010PropOp55
 70
     1
102
RTVSPost2010Prop56
140
1.0
102
RTVSPost2010PropOp56
 70
     1
102
RTVSPost2010Prop57
140
1.0
102
RTVSPost2010PropOp57
 70
     1
  0
XRECORD
  5
30C
102
{ACAD_REACTORS
330
30B
102
}
330
30B
100
AcDbXrecord
280
     1
102
RTVSPropertyOp0
 70
     1
102
RTVSPropertyOp1
 70
     1
102
RTVSPropertyOp2
 70
     1
102
RTVSPropertyOp3
 70
     1
102
RTVSPropertyOp4
 70
     1
102
RTVSPropertyOp5
 70
     1
102
RTVSPropertyOp6
 70
     1
102
RTVSPropertyOp7
 70
     1
102
RTVSPropertyOp8
 70
     1
102
RTVSPropertyOp9
 70
     1
102
RTVSPropertyOp10
 70
     1
102
RTVSPropertyOp11
 70
     1
102
RTVSPropertyOp12
 70
     1
102
RTVSPropertyOp13
 70
     1
102
RTVSPropertyOp14
 70
     1
102
RTVSPropertyOp15
 70
     1
102
RTVSPropertyOp16
 70
     1
102
RTVSPropertyOp17
 70
     1
102
RTVSPropertyOp18
 70
     1
102
RTVSPropertyOp19
 70
     1
102
RTVSPropertyOp20
 70
     1
102
RTVSPropertyOp21
 70
     1
102
RTVSPropertyOp22
 70
     1
102
RTVSPropertyOp23
 70
     1
102
RTVSPropertyOp24
 70
     1
102
RTVSPropertyOp25
 70
     1
102
RTVSPropertyOp26
 70
     1
102
RTVSPropertyOp27
 70
     1
102
RTVSPropertyOp28
 70
     1
102
RTVSPropertyOp29
 70
     1
102
RTVSPropertyOp30
 70
     1
102
RTVSPropertyOp31
 70
     1
102
RTVSPropertyOp32
 70
     1
102
RTVSPropertyOp33
 70
     1
102
RTVSPropertyOp34
 70
     1
102
RTVSPropertyOp35
 70
     1
102
RTVSPropertyOp36
 70
     1
102
RTVSPropertyOp37
 70
     1
102
RTVSPropertyOp38
 70
     1
102
RTVSPropertyOp39
 70
     1
102
RTVSPropertyOp40
 70
     1
102
RTVSPropertyOp41
 70
     1
102
RTVSPropertyOp42
 70
     1
102
RTVSPropertyOp43
 70
     1
102
RTVSPropertyOp44
 70
     1
102
RTVSPropertyOp45
 70
     1
102
RTVSPropertyOp46
 70
     1
102
RTVSPropertyOp47
 70
     1
102
RTVSPropertyOp48
 70
     1
102
RTVSPropertyOp49
 70
     1
102
RTVSPropertyOp50
 70
     1
102
RTVSPropertyOp51
 70
     0
102
RTVSPropertyOp52
 70
     0
102
RTVSPropertyOp53
 70
     1
102
RTVSPropertyOp54
 70
     1
102
RTVSPropertyOp55
 70
     1
102
RTVSPropertyOp56
 70
     1
102
RTVSPropertyOp57
 70
     1
102
RTVSPost2010Prop28
280
     0
102
RTVSPost2010PropOp28
 70
     1
102
RTVSPost2010Prop29
280
     1
102
RTVSPost2010PropOp29
 70
     1
102
RTVSPost2010Prop30
280
     1
102
RTVSPost2010PropOp30
 70
     1
102
RTVSPost2010Prop31
280
     0
102
RTVSPost2010PropOp31
 70
     1
102
RTVSPost2010Prop32
280
     0
102
RTVSPost2010PropOp32
 70
     1
102
RTVSPost2010Prop33
280
     0
102
RTVSPost2010PropOp33
 70
     1
102
RTVSPost2010Prop34
280
     0
102
RTVSPost2010PropOp34
 70
     1
102
RTVSPost2010Prop35
280
     0
102
RTVSPost2010PropOp35
 70
     1
102
RTVSPost2010Prop36
280
     0
102
RTVSPost2010PropOp36
 70
     1
102
RTVSPost2010Prop37
 90
       50
102
RTVSPost2010PropOp37
 70
     1
102
RTVSPost2010Prop38
140
0.0
102
RTVSPost2010PropOp38
 70
     1
102
RTVSPost2010Prop39
140
1.0
102
RTVSPost2010PropOp39
 70
     1
102
RTVSPost2010Prop40
 90
        0
102
RTVSPost2010PropOp40
 70
     1
102
RTVSPost2010Prop41ColorIndex
 90
       18
102
RTVSPost2010Prop41ColorRGB
 90
        0
102
RTVSPost2010PropOp41
 70
     1
102
RTVSPost2010Prop42
 90
       50
102
RTVSPost2010PropOp42
 70
     1
102
RTVSPost2010Prop43
 90
        3
102
RTVSPost2010PropOp43
 70
     1
102
RTVSPost2010Prop44ColorIndex
 90
        5
102
RTVSPost2010Prop44ColorRGB
 90
      255
102
RTVSPost2010PropOp44
 70
     1
102
RTVSPost2010Prop45
280
     0
102
RTVSPost2010PropOp45
 70
     1
102
RTVSPost2010Prop46
 90
       50
102
RTVSPost2010PropOp46
 70
     1
102
RTVSPost2010Prop47
 90
       50
102
RTVSPost2010PropOp47
 70
     1
102
RTVSPost2010Prop48
 90
       50
102
RTVSPost2010PropOp48
 70
     1
102
RTVSPost2010Prop49
280
     0
102
RTVSPost2010PropOp49
 70
     1
102
RTVSPost2010Prop50
 90
       50
102
RTVSPost2010PropOp50
 70
     1
102
RTVSPost2010Prop51ColorIndex
 90
      256
102
RTVSPost2010Prop51ColorRGB
 90
-16777216
102
RTVSPost2010PropOp51
 70
     0
102
RTVSPost2010Prop52
140
1.0
102
RTVSPost2010PropOp52
 70
     0
102
RTVSPost2010Prop53
 90
        2
102
RTVSPost2010PropOp53
 70
     1
102
RTVSPost2010Prop54
  1
strokes_ogs.tif
102
RTVSPost2010PropOp54
 70
     1
102
RTVSPost2010Prop55
280
     0
102
RTVSPost2010PropOp55
 70
     1
102
RTVSPost2010Prop56
140
1.0
102
RTVSPost2010PropOp56
 70
     1
102
RTVSPost2010Prop57
140
1.0
102
RTVSPost2010PropOp57
 70
     1
  0
XRECORD
  5
30E
102
{ACAD_REACTORS
330
30D
102
}
330
30D
100
AcDbXrecord
280
     1
102
RTVSPropertyOp0
 70
     1
102
RTVSPropertyOp1
 70
     1
102
RTVSPropertyOp2
 70
     1
102
RTVSPropertyOp3
 70
     1
102
RTVSPropertyOp4
 70
     1
102
RTVSPropertyOp5
 70
     1
102
RTVSPropertyOp6
 70
     1
102
RTVSPropertyOp7
 70
     1
102
RTVSPropertyOp8
 70
     1
102
RTVSPropertyOp9
 70
     1
102
RTVSPropertyOp10
 70
     1
102
RTVSPropertyOp11
 70
     1
102
RTVSPropertyOp12
 70
     1
102
RTVSPropertyOp13
 70
     1
102
RTVSPropertyOp14
 70
     1
102
RTVSPropertyOp15
 70
     1
102
RTVSPropertyOp16
 70
     1
102
RTVSPropertyOp17
 70
     1
102
RTVSPropertyOp18
 70
     1
102
RTVSPropertyOp19
 70
     1
102
RTVSPropertyOp20
 70
     1
102
RTVSPropertyOp21
 70
     1
102
RTVSPropertyOp22
 70
     1
102
RTVSPropertyOp23
 70
     1
102
RTVSPropertyOp24
 70
     1
102
RTVSPropertyOp25
 70
     1
102
RTVSPropertyOp26
 70
     1
102
RTVSPropertyOp27
 70
     1
102
RTVSPropertyOp28
 70
     1
102
RTVSPropertyOp29
 70
     1
102
RTVSPropertyOp30
 70
     1
102
RTVSPropertyOp31
 70
     1
102
RTVSPropertyOp32
 70
     1
102
RTVSPropertyOp33
 70
     1
102
RTVSPropertyOp34
 70
     1
102
RTVSPropertyOp35
 70
     1
102
RTVSPropertyOp36
 70
     1
102
RTVSPropertyOp37
 70
     1
102
RTVSPropertyOp38
 70
     1
102
RTVSPropertyOp39
 70
     1
102
RTVSPropertyOp40
 70
     1
102
RTVSPropertyOp41
 70
     1
102
RTVSPropertyOp42
 70
     1
102
RTVSPropertyOp43
 70
     1
102
RTVSPropertyOp44
 70
     1
102
RTVSPropertyOp45
 70
     1
102
RTVSPropertyOp46
 70
     1
102
RTVSPropertyOp47
 70
     1
102
RTVSPropertyOp48
 70
     1
102
RTVSPropertyOp49
 70
     1
102
RTVSPropertyOp50
 70
     1
102
RTVSPropertyOp51
 70
     0
102
RTVSPropertyOp52
 70
     0
102
RTVSPropertyOp53
 70
     1
102
RTVSPropertyOp54
 70
     1
102
RTVSPropertyOp55
 70
     1
102
RTVSPropertyOp56
 70
     1
102
RTVSPropertyOp57
 70
     1
102
RTVSPost2010Prop28
280
     0
102
RTVSPost2010PropOp28
 70
     1
102
RTVSPost2010Prop29
280
     1
102
RTVSPost2010PropOp29
 70
     1
102
RTVSPost2010Prop30
280
     1
102
RTVSPost2010PropOp30
 70
     1
102
RTVSPost2010Prop31
280
     0
102
RTVSPost2010PropOp31
 70
     1
102
RTVSPost2010Prop32
280
     0
102
RTVSPost2010PropOp32
 70
     1
102
RTVSPost2010Prop33
280
     0
102
RTVSPost2010PropOp33
 70
     1
102
RTVSPost2010Prop34
280
     0
102
RTVSPost2010PropOp34
 70
     1
102
RTVSPost2010Prop35
280
     0
102
RTVSPost2010PropOp35
 70
     1
102
RTVSPost2010Prop36
280
     0
102
RTVSPost2010PropOp36
 70
     1
102
RTVSPost2010Prop37
 90
       50
102
RTVSPost2010PropOp37
 70
     1
102
RTVSPost2010Prop38
140
0.0
102
RTVSPost2010PropOp38
 70
     1
102
RTVSPost2010Prop39
140
1.0
102
RTVSPost2010PropOp39
 70
     1
102
RTVSPost2010Prop40
 90
        0
102
RTVSPost2010PropOp40
 70
     1
102
RTVSPost2010Prop41ColorIndex
 90
       18
102
RTVSPost2010Prop41ColorRGB
 90
        0
102
RTVSPost2010PropOp41
 70
     1
102
RTVSPost2010Prop42
 90
       50
102
RTVSPost2010PropOp42
 70
     1
102
RTVSPost2010Prop43
 90
        3
102
RTVSPost2010PropOp43
 70
     1
102
RTVSPost2010Prop44ColorIndex
 90
        5
102
RTVSPost2010Prop44ColorRGB
 90
      255
102
RTVSPost2010PropOp44
 70
     1
102
RTVSPost2010Prop45
280
     0
102
RTVSPost2010PropOp45
 70
     1
102
RTVSPost2010Prop46
 90
       50
102
RTVSPost2010PropOp46
 70
     1
102
RTVSPost2010Prop47
 90
       50
102
RTVSPost2010PropOp47
 70
     1
102
RTVSPost2010Prop48
 90
       50
102
RTVSPost2010PropOp48
 70
     1
102
RTVSPost2010Prop49
280
     0
102
RTVSPost2010PropOp49
 70
     1
102
RTVSPost2010Prop50
 90
       50
102
RTVSPost2010PropOp50
 70
     1
102
RTVSPost2010Prop51ColorIndex
 90
      256
102
RTVSPost2010Prop51ColorRGB
 90
-16777216
102
RTVSPost2010PropOp51
 70
     0
102
RTVSPost2010Prop52
140
1.0
102
RTVSPost2010PropOp52
 70
     0
102
RTVSPost2010Prop53
 90
        2
102
RTVSPost2010PropOp53
 70
     1
102
RTVSPost2010Prop54
  1
strokes_ogs.tif
102
RTVSPost2010PropOp54
 70
     1
102
RTVSPost2010Prop55
280
     0
102
RTVSPost2010PropOp55
 70
     1
102
RTVSPost2010Prop56
140
1.0
102
RTVSPost2010PropOp56
 70
     1
102
RTVSPost2010Prop57
140
1.0
102
RTVSPost2010PropOp57
 70
     1
  0
XRECORD
  5
314
102
{ACAD_REACTORS
330
313
102
}
330
313
100
AcDbXrecord
280
     1
102
RTVSPropertyOp0
 70
     1
102
RTVSPropertyOp1
 70
     1
102
RTVSPropertyOp2
 70
     1
102
RTVSPropertyOp3
 70
     1
102
RTVSPropertyOp4
 70
     1
102
RTVSPropertyOp5
 70
     1
102
RTVSPropertyOp6
 70
     1
102
RTVSPropertyOp7
 70
     1
102
RTVSPropertyOp8
 70
     1
102
RTVSPropertyOp9
 70
     1
102
RTVSPropertyOp10
 70
     1
102
RTVSPropertyOp11
 70
     1
102
RTVSPropertyOp12
 70
     1
102
RTVSPropertyOp13
 70
     1
102
RTVSPropertyOp14
 70
     1
102
RTVSPropertyOp15
 70
     1
102
RTVSPropertyOp16
 70
     1
102
RTVSPropertyOp17
 70
     1
102
RTVSPropertyOp18
 70
     1
102
RTVSPropertyOp19
 70
     1
102
RTVSPropertyOp20
 70
     1
102
RTVSPropertyOp21
 70
     1
102
RTVSPropertyOp22
 70
     1
102
RTVSPropertyOp23
 70
     1
102
RTVSPropertyOp24
 70
     1
102
RTVSPropertyOp25
 70
     1
102
RTVSPropertyOp26
 70
     1
102
RTVSPropertyOp27
 70
     1
102
RTVSPropertyOp28
 70
     1
102
RTVSPropertyOp29
 70
     1
102
RTVSPropertyOp30
 70
     1
102
RTVSPropertyOp31
 70
     1
102
RTVSPropertyOp32
 70
     1
102
RTVSPropertyOp33
 70
     1
102
RTVSPropertyOp34
 70
     1
102
RTVSPropertyOp35
 70
     1
102
RTVSPropertyOp36
 70
     1
102
RTVSPropertyOp37
 70
     1
102
RTVSPropertyOp38
 70
     1
102
RTVSPropertyOp39
 70
     1
102
RTVSPropertyOp40
 70
     1
102
RTVSPropertyOp41
 70
     1
102
RTVSPropertyOp42
 70
     1
102
RTVSPropertyOp43
 70
     1
102
RTVSPropertyOp44
 70
     1
102
RTVSPropertyOp45
 70
     1
102
RTVSPropertyOp46
 70
     1
102
RTVSPropertyOp47
 70
     1
102
RTVSPropertyOp48
 70
     1
102
RTVSPropertyOp49
 70
     1
102
RTVSPropertyOp50
 70
     1
102
RTVSPropertyOp51
 70
     0
102
RTVSPropertyOp52
 70
     0
102
RTVSPropertyOp53
 70
     1
102
RTVSPropertyOp54
 70
     1
102
RTVSPropertyOp55
 70
     1
102
RTVSPropertyOp56
 70
     1
102
RTVSPropertyOp57
 70
     1
102
RTVSPost2010Prop28
280
     0
102
RTVSPost2010PropOp28
 70
     1
102
RTVSPost2010Prop29
280
     1
102
RTVSPost2010PropOp29
 70
     1
102
RTVSPost2010Prop30
280
     1
102
RTVSPost2010PropOp30
 70
     1
102
RTVSPost2010Prop31
280
     0
102
RTVSPost2010PropOp31
 70
     1
102
RTVSPost2010Prop32
280
     0
102
RTVSPost2010PropOp32
 70
     1
102
RTVSPost2010Prop33
280
     0
102
RTVSPost2010PropOp33
 70
     1
102
RTVSPost2010Prop34
280
     0
102
RTVSPost2010PropOp34
 70
     1
102
RTVSPost2010Prop35
280
     0
102
RTVSPost2010PropOp35
 70
     1
102
RTVSPost2010Prop36
280
     0
102
RTVSPost2010PropOp36
 70
     1
102
RTVSPost2010Prop37
 90
       50
102
RTVSPost2010PropOp37
 70
     1
102
RTVSPost2010Prop38
140
0.0
102
RTVSPost2010PropOp38
 70
     1
102
RTVSPost2010Prop39
140
1.0
102
RTVSPost2010PropOp39
 70
     1
102
RTVSPost2010Prop40
 90
        0
102
RTVSPost2010PropOp40
 70
     1
102
RTVSPost2010Prop41ColorIndex
 90
       18
102
RTVSPost2010Prop41ColorRGB
 90
        0
102
RTVSPost2010PropOp41
 70
     1
102
RTVSPost2010Prop42
 90
       50
102
RTVSPost2010PropOp42
 70
     1
102
RTVSPost2010Prop43
 90
        3
102
RTVSPost2010PropOp43
 70
     1
102
RTVSPost2010Prop44ColorIndex
 90
        5
102
RTVSPost2010Prop44ColorRGB
 90
      255
102
RTVSPost2010PropOp44
 70
     1
102
RTVSPost2010Prop45
280
     0
102
RTVSPost2010PropOp45
 70
     1
102
RTVSPost2010Prop46
 90
       50
102
RTVSPost2010PropOp46
 70
     1
102
RTVSPost2010Prop47
 90
       50
102
RTVSPost2010PropOp47
 70
     1
102
RTVSPost2010Prop48
 90
       50
102
RTVSPost2010PropOp48
 70
     1
102
RTVSPost2010Prop49
280
     0
102
RTVSPost2010PropOp49
 70
     1
102
RTVSPost2010Prop50
 90
       50
102
RTVSPost2010PropOp50
 70
     1
102
RTVSPost2010Prop51ColorIndex
 90
      256
102
RTVSPost2010Prop51ColorRGB
 90
-16777216
102
RTVSPost2010PropOp51
 70
     0
102
RTVSPost2010Prop52
140
1.0
102
RTVSPost2010PropOp52
 70
     0
102
RTVSPost2010Prop53
 90
        2
102
RTVSPost2010PropOp53
 70
     1
102
RTVSPost2010Prop54
  1
strokes_ogs.tif
102
RTVSPost2010PropOp54
 70
     1
102
RTVSPost2010Prop55
280
     0
102
RTVSPost2010PropOp55
 70
     1
102
RTVSPost2010Prop56
140
1.0
102
RTVSPost2010PropOp56
 70
     1
102
RTVSPost2010Prop57
140
1.0
102
RTVSPost2010PropOp57
 70
     1
  0
XRECORD
  5
328
102
{ACAD_REACTORS
330
327
102
}
330
327
100
AcDbXrecord
280
     1
102
RTVSPropertyOp0
 70
     0
102
RTVSPropertyOp1
 70
     0
102
RTVSPropertyOp2
 70
     0
102
RTVSPropertyOp3
 70
     0
102
RTVSPropertyOp4
 70
     0
102
RTVSPropertyOp5
 70
     0
102
RTVSPropertyOp6
 70
     0
102
RTVSPropertyOp7
 70
     0
102
RTVSPropertyOp8
 70
     0
102
RTVSPropertyOp9
 70
     0
102
RTVSPropertyOp10
 70
     0
102
RTVSPropertyOp11
 70
     0
102
RTVSPropertyOp12
 70
     0
102
RTVSPropertyOp13
 70
     0
102
RTVSPropertyOp14
 70
     2
102
RTVSPropertyOp15
 70
     0
102
RTVSPropertyOp16
 70
     0
102
RTVSPropertyOp17
 70
     0
102
RTVSPropertyOp18
 70
     0
102
RTVSPropertyOp19
 70
     0
102
RTVSPropertyOp20
 70
     0
102
RTVSPropertyOp21
 70
     0
102
RTVSPropertyOp22
 70
     0
102
RTVSPropertyOp23
 70
     0
102
RTVSPropertyOp24
 70
     0
102
RTVSPropertyOp25
 70
     0
102
RTVSPropertyOp26
 70
     0
102
RTVSPropertyOp27
 70
     0
102
RTVSPropertyOp28
 70
     0
102
RTVSPropertyOp29
 70
     0
102
RTVSPropertyOp30
 70
     0
102
RTVSPropertyOp31
 70
     0
102
RTVSPropertyOp32
 70
     0
102
RTVSPropertyOp33
 70
     0
102
RTVSPropertyOp34
 70
     0
102
RTVSPropertyOp35
 70
     0
102
RTVSPropertyOp36
 70
     0
102
RTVSPropertyOp37
 70
     0
102
RTVSPropertyOp38
 70
     0
102
RTVSPropertyOp39
 70
     0
102
RTVSPropertyOp40
 70
     0
102
RTVSPropertyOp41
 70
     0
102
RTVSPropertyOp42
 70
     0
102
RTVSPropertyOp43
 70
     0
102
RTVSPropertyOp44
 70
     0
102
RTVSPropertyOp45
 70
     0
102
RTVSPropertyOp46
 70
     0
102
RTVSPropertyOp47
 70
     0
102
RTVSPropertyOp48
 70
     0
102
RTVSPropertyOp49
 70
     0
102
RTVSPropertyOp50
 70
     0
102
RTVSPropertyOp51
 70
     0
102
RTVSPropertyOp52
 70
     0
102
RTVSPropertyOp53
 70
     0
102
RTVSPropertyOp54
 70
     0
102
RTVSPropertyOp55
 70
     0
102
RTVSPropertyOp56
 70
     0
102
RTVSPropertyOp57
 70
     0
102
RTVSPost2010Prop28
280
     0
102
RTVSPost2010PropOp28
 70
     0
102
RTVSPost2010Prop29
280
     1
102
RTVSPost2010PropOp29
 70
     0
102
RTVSPost2010Prop30
280
     1
102
RTVSPost2010PropOp30
 70
     0
102
RTVSPost2010Prop31
280
     0
102
RTVSPost2010PropOp31
 70
     0
102
RTVSPost2010Prop32
280
     0
102
RTVSPost2010PropOp32
 70
     0
102
RTVSPost2010Prop33
280
     0
102
RTVSPost2010PropOp33
 70
     0
102
RTVSPost2010Prop34
280
     0
102
RTVSPost2010PropOp34
 70
     0
102
RTVSPost2010Prop35
280
     0
102
RTVSPost2010PropOp35
 70
     0
102
RTVSPost2010Prop36
280
     0
102
RTVSPost2010PropOp36
 70
     0
102
RTVSPost2010Prop37
 90
       50
102
RTVSPost2010PropOp37
 70
     0
102
RTVSPost2010Prop38
140
0.0
102
RTVSPost2010PropOp38
 70
     0
102
RTVSPost2010Prop39
140
1.0
102
RTVSPost2010PropOp39
 70
     0
102
RTVSPost2010Prop40
 90
        0
102
RTVSPost2010PropOp40
 70
     0
102
RTVSPost2010Prop41ColorIndex
 90
       18
102
RTVSPost2010Prop41ColorRGB
 90
        0
102
RTVSPost2010PropOp41
 70
     0
102
RTVSPost2010Prop42
 90
       50
102
RTVSPost2010PropOp42
 70
     0
102
RTVSPost2010Prop43
 90
        3
102
RTVSPost2010PropOp43
 70
     0
102
RTVSPost2010Prop44ColorIndex
 90
        5
102
RTVSPost2010Prop44ColorRGB
 90
      255
102
RTVSPost2010PropOp44
 70
     0
102
RTVSPost2010Prop45
280
     0
102
RTVSPost2010PropOp45
 70
     0
102
RTVSPost2010Prop46
 90
       50
102
RTVSPost2010PropOp46
 70
     0
102
RTVSPost2010Prop47
 90
       50
102
RTVSPost2010PropOp47
 70
     0
102
RTVSPost2010Prop48
 90
       50
102
RTVSPost2010PropOp48
 70
     0
102
RTVSPost2010Prop49
280
     0
102
RTVSPost2010PropOp49
 70
     0
102
RTVSPost2010Prop50
 90
       50
102
RTVSPost2010PropOp50
 70
     0
102
RTVSPost2010Prop51ColorIndex
 90
      256
102
RTVSPost2010Prop51ColorRGB
 90
-16777216
102
RTVSPost2010PropOp51
 70
     0
102
RTVSPost2010Prop52
140
1.0
102
RTVSPost2010PropOp52
 70
     0
102
RTVSPost2010Prop53
 90
        2
102
RTVSPost2010PropOp53
 70
     0
102
RTVSPost2010Prop54
  1
strokes_ogs.tif
102
RTVSPost2010PropOp54
 70
     0
102
RTVSPost2010Prop55
280
     0
102
RTVSPost2010PropOp55
 70
     0
102
RTVSPost2010Prop56
140
1.0
102
RTVSPost2010PropOp56
 70
     0
102
RTVSPost2010Prop57
140
1.0
102
RTVSPost2010PropOp57
 70
     0
  0
XRECORD
  5
322
102
{ACAD_REACTORS
330
321
102
}
330
321
100
AcDbXrecord
280
     1
102
RTVSPropertyOp0
 70
     1
102
RTVSPropertyOp1
 70
     1
102
RTVSPropertyOp2
 70
     1
102
RTVSPropertyOp3
 70
     1
102
RTVSPropertyOp4
 70
     1
102
RTVSPropertyOp5
 70
     1
102
RTVSPropertyOp6
 70
     1
102
RTVSPropertyOp7
 70
     1
102
RTVSPropertyOp8
 70
     1
102
RTVSPropertyOp9
 70
     1
102
RTVSPropertyOp10
 70
     1
102
RTVSPropertyOp11
 70
     1
102
RTVSPropertyOp12
 70
     1
102
RTVSPropertyOp13
 70
     1
102
RTVSPropertyOp14
 70
     1
102
RTVSPropertyOp15
 70
     1
102
RTVSPropertyOp16
 70
     1
102
RTVSPropertyOp17
 70
     1
102
RTVSPropertyOp18
 70
     1
102
RTVSPropertyOp19
 70
     1
102
RTVSPropertyOp20
 70
     1
102
RTVSPropertyOp21
 70
     1
102
RTVSPropertyOp22
 70
     1
102
RTVSPropertyOp23
 70
     1
102
RTVSPropertyOp24
 70
     1
102
RTVSPropertyOp25
 70
     1
102
RTVSPropertyOp26
 70
     1
102
RTVSPropertyOp27
 70
     1
102
RTVSPropertyOp28
 70
     1
102
RTVSPropertyOp29
 70
     1
102
RTVSPropertyOp30
 70
     1
102
RTVSPropertyOp31
 70
     1
102
RTVSPropertyOp32
 70
     1
102
RTVSPropertyOp33
 70
     1
102
RTVSPropertyOp34
 70
     1
102
RTVSPropertyOp35
 70
     1
102
RTVSPropertyOp36
 70
     1
102
RTVSPropertyOp37
 70
     1
102
RTVSPropertyOp38
 70
     1
102
RTVSPropertyOp39
 70
     1
102
RTVSPropertyOp40
 70
     1
102
RTVSPropertyOp41
 70
     1
102
RTVSPropertyOp42
 70
     1
102
RTVSPropertyOp43
 70
     1
102
RTVSPropertyOp44
 70
     1
102
RTVSPropertyOp45
 70
     1
102
RTVSPropertyOp46
 70
     1
102
RTVSPropertyOp47
 70
     1
102
RTVSPropertyOp48
 70
     1
102
RTVSPropertyOp49
 70
     1
102
RTVSPropertyOp50
 70
     1
102
RTVSPropertyOp51
 70
     0
102
RTVSPropertyOp52
 70
     0
102
RTVSPropertyOp53
 70
     1
102
RTVSPropertyOp54
 70
     1
102
RTVSPropertyOp55
 70
     1
102
RTVSPropertyOp56
 70
     1
102
RTVSPropertyOp57
 70
     1
102
RTVSPost2010Prop28
280
     0
102
RTVSPost2010PropOp28
 70
     1
102
RTVSPost2010Prop29
280
     1
102
RTVSPost2010PropOp29
 70
     1
102
RTVSPost2010Prop30
280
     1
102
RTVSPost2010PropOp30
 70
     1
102
RTVSPost2010Prop31
280
     0
102
RTVSPost2010PropOp31
 70
     1
102
RTVSPost2010Prop32
280
     0
102
RTVSPost2010PropOp32
 70
     1
102
RTVSPost2010Prop33
280
     0
102
RTVSPost2010PropOp33
 70
     1
102
RTVSPost2010Prop34
280
     0
102
RTVSPost2010PropOp34
 70
     1
102
RTVSPost2010Prop35
280
     0
102
RTVSPost2010PropOp35
 70
     1
102
RTVSPost2010Prop36
280
     0
102
RTVSPost2010PropOp36
 70
     1
102
RTVSPost2010Prop37
 90
       50
102
RTVSPost2010PropOp37
 70
     1
102
RTVSPost2010Prop38
140
0.0
102
RTVSPost2010PropOp38
 70
     1
102
RTVSPost2010Prop39
140
1.0
102
RTVSPost2010PropOp39
 70
     1
102
RTVSPost2010Prop40
 90
        0
102
RTVSPost2010PropOp40
 70
     1
102
RTVSPost2010Prop41ColorIndex
 90
       18
102
RTVSPost2010Prop41ColorRGB
 90
        0
102
RTVSPost2010PropOp41
 70
     1
102
RTVSPost2010Prop42
 90
       50
102
RTVSPost2010PropOp42
 70
     1
102
RTVSPost2010Prop43
 90
        3
102
RTVSPost2010PropOp43
 70
     1
102
RTVSPost2010Prop44ColorIndex
 90
        5
102
RTVSPost2010Prop44ColorRGB
 90
      255
102
RTVSPost2010PropOp44
 70
     1
102
RTVSPost2010Prop45
280
     0
102
RTVSPost2010PropOp45
 70
     1
102
RTVSPost2010Prop46
 90
       50
102
RTVSPost2010PropOp46
 70
     1
102
RTVSPost2010Prop47
 90
       50
102
RTVSPost2010PropOp47
 70
     1
102
RTVSPost2010Prop48
 90
       50
102
RTVSPost2010PropOp48
 70
     1
102
RTVSPost2010Prop49
280
     0
102
RTVSPost2010PropOp49
 70
     1
102
RTVSPost2010Prop50
 90
       50
102
RTVSPost2010PropOp50
 70
     1
102
RTVSPost2010Prop51ColorIndex
 90
      256
102
RTVSPost2010Prop51ColorRGB
 90
-16777216
102
RTVSPost2010PropOp51
 70
     0
102
RTVSPost2010Prop52
140
1.0
102
RTVSPost2010PropOp52
 70
     0
102
RTVSPost2010Prop53
 90
        2
102
RTVSPost2010PropOp53
 70
     1
102
RTVSPost2010Prop54
  1
strokes_ogs.tif
102
RTVSPost2010PropOp54
 70
     1
102
RTVSPost2010Prop55
280
     0
102
RTVSPost2010PropOp55
 70
     1
102
RTVSPost2010Prop56
140
1.0
102
RTVSPost2010PropOp56
 70
     1
102
RTVSPost2010Prop57
140
1.0
102
RTVSPost2010PropOp57
 70
     1
  0
XRECORD
  5
32A
102
{ACAD_REACTORS
330
329
102
}
330
329
100
AcDbXrecord
280
     1
102
RTVSPropertyOp0
 70
     0
102
RTVSPropertyOp1
 70
     0
102
RTVSPropertyOp2
 70
     0
102
RTVSPropertyOp3
 70
     0
102
RTVSPropertyOp4
 70
     0
102
RTVSPropertyOp5
 70
     0
102
RTVSPropertyOp6
 70
     0
102
RTVSPropertyOp7
 70
     0
102
RTVSPropertyOp8
 70
     0
102
RTVSPropertyOp9
 70
     0
102
RTVSPropertyOp10
 70
     0
102
RTVSPropertyOp11
 70
     0
102
RTVSPropertyOp12
 70
     0
102
RTVSPropertyOp13
 70
     0
102
RTVSPropertyOp14
 70
     2
102
RTVSPropertyOp15
 70
     0
102
RTVSPropertyOp16
 70
     0
102
RTVSPropertyOp17
 70
     0
102
RTVSPropertyOp18
 70
     0
102
RTVSPropertyOp19
 70
     0
102
RTVSPropertyOp20
 70
     0
102
RTVSPropertyOp21
 70
     0
102
RTVSPropertyOp22
 70
     0
102
RTVSPropertyOp23
 70
     0
102
RTVSPropertyOp24
 70
     0
102
RTVSPropertyOp25
 70
     0
102
RTVSPropertyOp26
 70
     0
102
RTVSPropertyOp27
 70
     0
102
RTVSPropertyOp28
 70
     0
102
RTVSPropertyOp29
 70
     0
102
RTVSPropertyOp30
 70
     0
102
RTVSPropertyOp31
 70
     0
102
RTVSPropertyOp32
 70
     0
102
RTVSPropertyOp33
 70
     0
102
RTVSPropertyOp34
 70
     0
102
RTVSPropertyOp35
 70
     0
102
RTVSPropertyOp36
 70
     0
102
RTVSPropertyOp37
 70
     0
102
RTVSPropertyOp38
 70
     0
102
RTVSPropertyOp39
 70
     0
102
RTVSPropertyOp40
 70
     0
102
RTVSPropertyOp41
 70
     0
102
RTVSPropertyOp42
 70
     0
102
RTVSPropertyOp43
 70
     0
102
RTVSPropertyOp44
 70
     0
102
RTVSPropertyOp45
 70
     0
102
RTVSPropertyOp46
 70
     0
102
RTVSPropertyOp47
 70
     0
102
RTVSPropertyOp48
 70
     0
102
RTVSPropertyOp49
 70
     0
102
RTVSPropertyOp50
 70
     0
102
RTVSPropertyOp51
 70
     0
102
RTVSPropertyOp52
 70
     0
102
RTVSPropertyOp53
 70
     0
102
RTVSPropertyOp54
 70
     0
102
RTVSPropertyOp55
 70
     0
102
RTVSPropertyOp56
 70
     0
102
RTVSPropertyOp57
 70
     0
102
RTVSPost2010Prop28
280
     0
102
RTVSPost2010PropOp28
 70
     0
102
RTVSPost2010Prop29
280
     1
102
RTVSPost2010PropOp29
 70
     0
102
RTVSPost2010Prop30
280
     1
102
RTVSPost2010PropOp30
 70
     0
102
RTVSPost2010Prop31
280
     0
102
RTVSPost2010PropOp31
 70
     0
102
RTVSPost2010Prop32
280
     0
102
RTVSPost2010PropOp32
 70
     0
102
RTVSPost2010Prop33
280
     0
102
RTVSPost2010PropOp33
 70
     0
102
RTVSPost2010Prop34
280
     0
102
RTVSPost2010PropOp34
 70
     0
102
RTVSPost2010Prop35
280
     0
102
RTVSPost2010PropOp35
 70
     0
102
RTVSPost2010Prop36
280
     0
102
RTVSPost2010PropOp36
 70
     0
102
RTVSPost2010Prop37
 90
       50
102
RTVSPost2010PropOp37
 70
     0
102
RTVSPost2010Prop38
140
0.0
102
RTVSPost2010PropOp38
 70
     0
102
RTVSPost2010Prop39
140
1.0
102
RTVSPost2010PropOp39
 70
     0
102
RTVSPost2010Prop40
 90
        0
102
RTVSPost2010PropOp40
 70
     0
102
RTVSPost2010Prop41ColorIndex
 90
       18
102
RTVSPost2010Prop41ColorRGB
 90
        0
102
RTVSPost2010PropOp41
 70
     0
102
RTVSPost2010Prop42
 90
       50
102
RTVSPost2010PropOp42
 70
     0
102
RTVSPost2010Prop43
 90
        3
102
RTVSPost2010PropOp43
 70
     0
102
RTVSPost2010Prop44ColorIndex
 90
        5
102
RTVSPost2010Prop44ColorRGB
 90
      255
102
RTVSPost2010PropOp44
 70
     0
102
RTVSPost2010Prop45
280
     0
102
RTVSPost2010PropOp45
 70
     0
102
RTVSPost2010Prop46
 90
       50
102
RTVSPost2010PropOp46
 70
     0
102
RTVSPost2010Prop47
 90
       50
102
RTVSPost2010PropOp47
 70
     0
102
RTVSPost2010Prop48
 90
       50
102
RTVSPost2010PropOp48
 70
     0
102
RTVSPost2010Prop49
280
     0
102
RTVSPost2010PropOp49
 70
     0
102
RTVSPost2010Prop50
 90
       50
102
RTVSPost2010PropOp50
 70
     0
102
RTVSPost2010Prop51ColorIndex
 90
      256
102
RTVSPost2010Prop51ColorRGB
 90
-16777216
102
RTVSPost2010PropOp51
 70
     0
102
RTVSPost2010Prop52
140
1.0
102
RTVSPost2010PropOp52
 70
     0
102
RTVSPost2010Prop53
 90
        2
102
RTVSPost2010PropOp53
 70
     0
102
RTVSPost2010Prop54
  1
strokes_ogs.tif
102
RTVSPost2010PropOp54
 70
     0
102
RTVSPost2010Prop55
280
     0
102
RTVSPost2010PropOp55
 70
     0
102
RTVSPost2010Prop56
140
1.0
102
RTVSPost2010PropOp56
 70
     0
102
RTVSPost2010Prop57
140
1.0
102
RTVSPost2010PropOp57
 70
     0
  0
XRECORD
  5
318
102
{ACAD_REACTORS
330
317
102
}
330
317
100
AcDbXrecord
280
     1
102
RTVSPropertyOp0
 70
     1
102
RTVSPropertyOp1
 70
     1
102
RTVSPropertyOp2
 70
     1
102
RTVSPropertyOp3
 70
     1
102
RTVSPropertyOp4
 70
     1
102
RTVSPropertyOp5
 70
     1
102
RTVSPropertyOp6
 70
     1
102
RTVSPropertyOp7
 70
     1
102
RTVSPropertyOp8
 70
     1
102
RTVSPropertyOp9
 70
     1
102
RTVSPropertyOp10
 70
     1
102
RTVSPropertyOp11
 70
     1
102
RTVSPropertyOp12
 70
     1
102
RTVSPropertyOp13
 70
     1
102
RTVSPropertyOp14
 70
     1
102
RTVSPropertyOp15
 70
     1
102
RTVSPropertyOp16
 70
     1
102
RTVSPropertyOp17
 70
     1
102
RTVSPropertyOp18
 70
     1
102
RTVSPropertyOp19
 70
     1
102
RTVSPropertyOp20
 70
     1
102
RTVSPropertyOp21
 70
     1
102
RTVSPropertyOp22
 70
     1
102
RTVSPropertyOp23
 70
     1
102
RTVSPropertyOp24
 70
     1
102
RTVSPropertyOp25
 70
     1
102
RTVSPropertyOp26
 70
     1
102
RTVSPropertyOp27
 70
     1
102
RTVSPropertyOp28
 70
     1
102
RTVSPropertyOp29
 70
     1
102
RTVSPropertyOp30
 70
     1
102
RTVSPropertyOp31
 70
     1
102
RTVSPropertyOp32
 70
     1
102
RTVSPropertyOp33
 70
     1
102
RTVSPropertyOp34
 70
     1
102
RTVSPropertyOp35
 70
     1
102
RTVSPropertyOp36
 70
     1
102
RTVSPropertyOp37
 70
     1
102
RTVSPropertyOp38
 70
     1
102
RTVSPropertyOp39
 70
     1
102
RTVSPropertyOp40
 70
     1
102
RTVSPropertyOp41
 70
     1
102
RTVSPropertyOp42
 70
     1
102
RTVSPropertyOp43
 70
     1
102
RTVSPropertyOp44
 70
     1
102
RTVSPropertyOp45
 70
     1
102
RTVSPropertyOp46
 70
     1
102
RTVSPropertyOp47
 70
     1
102
RTVSPropertyOp48
 70
     1
102
RTVSPropertyOp49
 70
     1
102
RTVSPropertyOp50
 70
     1
102
RTVSPropertyOp51
 70
     0
102
RTVSPropertyOp52
 70
     0
102
RTVSPropertyOp53
 70
     1
102
RTVSPropertyOp54
 70
     1
102
RTVSPropertyOp55
 70
     1
102
RTVSPropertyOp56
 70
     1
102
RTVSPropertyOp57
 70
     1
102
RTVSPost2010Prop28
280
     0
102
RTVSPost2010PropOp28
 70
     1
102
RTVSPost2010Prop29
280
     1
102
RTVSPost2010PropOp29
 70
     1
102
RTVSPost2010Prop30
280
     1
102
RTVSPost2010PropOp30
 70
     1
102
RTVSPost2010Prop31
280
     0
102
RTVSPost2010PropOp31
 70
     1
102
RTVSPost2010Prop32
280
     0
102
RTVSPost2010PropOp32
 70
     1
102
RTVSPost2010Prop33
280
     0
102
RTVSPost2010PropOp33
 70
     1
102
RTVSPost2010Prop34
280
     0
102
RTVSPost2010PropOp34
 70
     1
102
RTVSPost2010Prop35
280
     0
102
RTVSPost2010PropOp35
 70
     1
102
RTVSPost2010Prop36
280
     0
102
RTVSPost2010PropOp36
 70
     1
102
RTVSPost2010Prop37
 90
       50
102
RTVSPost2010PropOp37
 70
     1
102
RTVSPost2010Prop38
140
0.0
102
RTVSPost2010PropOp38
 70
     1
102
RTVSPost2010Prop39
140
1.0
102
RTVSPost2010PropOp39
 70
     1
102
RTVSPost2010Prop40
 90
        0
102
RTVSPost2010PropOp40
 70
     1
102
RTVSPost2010Prop41ColorIndex
 90
       18
102
RTVSPost2010Prop41ColorRGB
 90
        0
102
RTVSPost2010PropOp41
 70
     1
102
RTVSPost2010Prop42
 90
       50
102
RTVSPost2010PropOp42
 70
     1
102
RTVSPost2010Prop43
 90
        3
102
RTVSPost2010PropOp43
 70
     1
102
RTVSPost2010Prop44ColorIndex
 90
        5
102
RTVSPost2010Prop44ColorRGB
 90
      255
102
RTVSPost2010PropOp44
 70
     1
102
RTVSPost2010Prop45
280
     0
102
RTVSPost2010PropOp45
 70
     1
102
RTVSPost2010Prop46
 90
       50
102
RTVSPost2010PropOp46
 70
     1
102
RTVSPost2010Prop47
 90
       50
102
RTVSPost2010PropOp47
 70
     1
102
RTVSPost2010Prop48
 90
       50
102
RTVSPost2010PropOp48
 70
     1
102
RTVSPost2010Prop49
280
     0
102
RTVSPost2010PropOp49
 70
     1
102
RTVSPost2010Prop50
 90
       50
102
RTVSPost2010PropOp50
 70
     1
102
RTVSPost2010Prop51ColorIndex
 90
      256
102
RTVSPost2010Prop51ColorRGB
 90
-16777216
102
RTVSPost2010PropOp51
 70
     0
102
RTVSPost2010Prop52
140
1.0
102
RTVSPost2010PropOp52
 70
     0
102
RTVSPost2010Prop53
 90
        2
102
RTVSPost2010PropOp53
 70
     1
102
RTVSPost2010Prop54
  1
strokes_ogs.tif
102
RTVSPost2010PropOp54
 70
     1
102
RTVSPost2010Prop55
280
     0
102
RTVSPost2010PropOp55
 70
     1
102
RTVSPost2010Prop56
140
1.0
102
RTVSPost2010PropOp56
 70
     1
102
RTVSPost2010Prop57
140
1.0
102
RTVSPost2010PropOp57
 70
     1
  0
XRECORD
  5
336
102
{ACAD_REACTORS
330
335
102
}
330
335
100
AcDbXrecord
280
     1
102
RTVSPropertyOp0
 70
     1
102
RTVSPropertyOp1
 70
     1
102
RTVSPropertyOp2
 70
     1
102
RTVSPropertyOp3
 70
     1
102
RTVSPropertyOp4
 70
     1
102
RTVSPropertyOp5
 70
     1
102
RTVSPropertyOp6
 70
     1
102
RTVSPropertyOp7
 70
     1
102
RTVSPropertyOp8
 70
     1
102
RTVSPropertyOp9
 70
     1
102
RTVSPropertyOp10
 70
     1
102
RTVSPropertyOp11
 70
     1
102
RTVSPropertyOp12
 70
     1
102
RTVSPropertyOp13
 70
     1
102
RTVSPropertyOp14
 70
     1
102
RTVSPropertyOp15
 70
     1
102
RTVSPropertyOp16
 70
     1
102
RTVSPropertyOp17
 70
     1
102
RTVSPropertyOp18
 70
     1
102
RTVSPropertyOp19
 70
     1
102
RTVSPropertyOp20
 70
     1
102
RTVSPropertyOp21
 70
     1
102
RTVSPropertyOp22
 70
     1
102
RTVSPropertyOp23
 70
     1
102
RTVSPropertyOp24
 70
     1
102
RTVSPropertyOp25
 70
     1
102
RTVSPropertyOp26
 70
     1
102
RTVSPropertyOp27
 70
     1
102
RTVSPropertyOp28
 70
     1
102
RTVSPropertyOp29
 70
     1
102
RTVSPropertyOp30
 70
     1
102
RTVSPropertyOp31
 70
     1
102
RTVSPropertyOp32
 70
     1
102
RTVSPropertyOp33
 70
     1
102
RTVSPropertyOp34
 70
     1
102
RTVSPropertyOp35
 70
     1
102
RTVSPropertyOp36
 70
     1
102
RTVSPropertyOp37
 70
     1
102
RTVSPropertyOp38
 70
     1
102
RTVSPropertyOp39
 70
     1
102
RTVSPropertyOp40
 70
     1
102
RTVSPropertyOp41
 70
     1
102
RTVSPropertyOp42
 70
     1
102
RTVSPropertyOp43
 70
     1
102
RTVSPropertyOp44
 70
     1
102
RTVSPropertyOp45
 70
     1
102
RTVSPropertyOp46
 70
     1
102
RTVSPropertyOp47
 70
     1
102
RTVSPropertyOp48
 70
     1
102
RTVSPropertyOp49
 70
     1
102
RTVSPropertyOp50
 70
     1
102
RTVSPropertyOp51
 70
     0
102
RTVSPropertyOp52
 70
     0
102
RTVSPropertyOp53
 70
     1
102
RTVSPropertyOp54
 70
     1
102
RTVSPropertyOp55
 70
     1
102
RTVSPropertyOp56
 70
     1
102
RTVSPropertyOp57
 70
     1
102
RTVSPost2010Prop28
280
     0
102
RTVSPost2010PropOp28
 70
     1
102
RTVSPost2010Prop29
280
     1
102
RTVSPost2010PropOp29
 70
     1
102
RTVSPost2010Prop30
280
     1
102
RTVSPost2010PropOp30
 70
     1
102
RTVSPost2010Prop31
280
     0
102
RTVSPost2010PropOp31
 70
     1
102
RTVSPost2010Prop32
280
     0
102
RTVSPost2010PropOp32
 70
     1
102
RTVSPost2010Prop33
280
     0
102
RTVSPost2010PropOp33
 70
     1
102
RTVSPost2010Prop34
280
     0
102
RTVSPost2010PropOp34
 70
     1
102
RTVSPost2010Prop35
280
     0
102
RTVSPost2010PropOp35
 70
     1
102
RTVSPost2010Prop36
280
     0
102
RTVSPost2010PropOp36
 70
     1
102
RTVSPost2010Prop37
 90
       50
102
RTVSPost2010PropOp37
 70
     1
102
RTVSPost2010Prop38
140
0.0
102
RTVSPost2010PropOp38
 70
     1
102
RTVSPost2010Prop39
140
1.0
102
RTVSPost2010PropOp39
 70
     1
102
RTVSPost2010Prop40
 90
        0
102
RTVSPost2010PropOp40
 70
     1
102
RTVSPost2010Prop41ColorIndex
 90
       18
102
RTVSPost2010Prop41ColorRGB
 90
        0
102
RTVSPost2010PropOp41
 70
     1
102
RTVSPost2010Prop42
 90
       50
102
RTVSPost2010PropOp42
 70
     1
102
RTVSPost2010Prop43
 90
        3
102
RTVSPost2010PropOp43
 70
     1
102
RTVSPost2010Prop44ColorIndex
 90
        5
102
RTVSPost2010Prop44ColorRGB
 90
      255
102
RTVSPost2010PropOp44
 70
     1
102
RTVSPost2010Prop45
280
     0
102
RTVSPost2010PropOp45
 70
     1
102
RTVSPost2010Prop46
 90
       50
102
RTVSPost2010PropOp46
 70
     1
102
RTVSPost2010Prop47
 90
       50
102
RTVSPost2010PropOp47
 70
     1
102
RTVSPost2010Prop48
 90
       50
102
RTVSPost2010PropOp48
 70
     1
102
RTVSPost2010Prop49
280
     0
102
RTVSPost2010PropOp49
 70
     1
102
RTVSPost2010Prop50
 90
       50
102
RTVSPost2010PropOp50
 70
     1
102
RTVSPost2010Prop51ColorIndex
 90
      256
102
RTVSPost2010Prop51ColorRGB
 90
-16777216
102
RTVSPost2010PropOp51
 70
     0
102
RTVSPost2010Prop52
140
1.0
102
RTVSPost2010PropOp52
 70
     0
102
RTVSPost2010Prop53
 90
        2
102
RTVSPost2010PropOp53
 70
     1
102
RTVSPost2010Prop54
  1
strokes_ogs.tif
102
RTVSPost2010PropOp54
 70
     1
102
RTVSPost2010Prop55
280
     0
102
RTVSPost2010PropOp55
 70
     1
102
RTVSPost2010Prop56
140
1.0
102
RTVSPost2010PropOp56
 70
     1
102
RTVSPost2010Prop57
140
1.0
102
RTVSPost2010PropOp57
 70
     1
  0
XRECORD
  5
334
102
{ACAD_REACTORS
330
333
102
}
330
333
100
AcDbXrecord
280
     1
102
RTVSPropertyOp0
 70
     1
102
RTVSPropertyOp1
 70
     1
102
RTVSPropertyOp2
 70
     1
102
RTVSPropertyOp3
 70
     1
102
RTVSPropertyOp4
 70
     1
102
RTVSPropertyOp5
 70
     1
102
RTVSPropertyOp6
 70
     1
102
RTVSPropertyOp7
 70
     1
102
RTVSPropertyOp8
 70
     1
102
RTVSPropertyOp9
 70
     1
102
RTVSPropertyOp10
 70
     1
102
RTVSPropertyOp11
 70
     1
102
RTVSPropertyOp12
 70
     1
102
RTVSPropertyOp13
 70
     1
102
RTVSPropertyOp14
 70
     1
102
RTVSPropertyOp15
 70
     1
102
RTVSPropertyOp16
 70
     1
102
RTVSPropertyOp17
 70
     1
102
RTVSPropertyOp18
 70
     1
102
RTVSPropertyOp19
 70
     1
102
RTVSPropertyOp20
 70
     1
102
RTVSPropertyOp21
 70
     1
102
RTVSPropertyOp22
 70
     1
102
RTVSPropertyOp23
 70
     1
102
RTVSPropertyOp24
 70
     1
102
RTVSPropertyOp25
 70
     1
102
RTVSPropertyOp26
 70
     1
102
RTVSPropertyOp27
 70
     1
102
RTVSPropertyOp28
 70
     1
102
RTVSPropertyOp29
 70
     1
102
RTVSPropertyOp30
 70
     1
102
RTVSPropertyOp31
 70
     1
102
RTVSPropertyOp32
 70
     1
102
RTVSPropertyOp33
 70
     1
102
RTVSPropertyOp34
 70
     1
102
RTVSPropertyOp35
 70
     1
102
RTVSPropertyOp36
 70
     1
102
RTVSPropertyOp37
 70
     1
102
RTVSPropertyOp38
 70
     1
102
RTVSPropertyOp39
 70
     1
102
RTVSPropertyOp40
 70
     1
102
RTVSPropertyOp41
 70
     1
102
RTVSPropertyOp42
 70
     1
102
RTVSPropertyOp43
 70
     1
102
RTVSPropertyOp44
 70
     1
102
RTVSPropertyOp45
 70
     1
102
RTVSPropertyOp46
 70
     1
102
RTVSPropertyOp47
 70
     1
102
RTVSPropertyOp48
 70
     1
102
RTVSPropertyOp49
 70
     1
102
RTVSPropertyOp50
 70
     1
102
RTVSPropertyOp51
 70
     0
102
RTVSPropertyOp52
 70
     0
102
RTVSPropertyOp53
 70
     1
102
RTVSPropertyOp54
 70
     1
102
RTVSPropertyOp55
 70
     1
102
RTVSPropertyOp56
 70
     1
102
RTVSPropertyOp57
 70
     1
102
RTVSPost2010Prop28
280
     0
102
RTVSPost2010PropOp28
 70
     1
102
RTVSPost2010Prop29
280
     1
102
RTVSPost2010PropOp29
 70
     1
102
RTVSPost2010Prop30
280
     1
102
RTVSPost2010PropOp30
 70
     1
102
RTVSPost2010Prop31
280
     0
102
RTVSPost2010PropOp31
 70
     1
102
RTVSPost2010Prop32
280
     0
102
RTVSPost2010PropOp32
 70
     1
102
RTVSPost2010Prop33
280
     0
102
RTVSPost2010PropOp33
 70
     1
102
RTVSPost2010Prop34
280
     0
102
RTVSPost2010PropOp34
 70
     1
102
RTVSPost2010Prop35
280
     0
102
RTVSPost2010PropOp35
 70
     1
102
RTVSPost2010Prop36
280
     0
102
RTVSPost2010PropOp36
 70
     1
102
RTVSPost2010Prop37
 90
       50
102
RTVSPost2010PropOp37
 70
     1
102
RTVSPost2010Prop38
140
0.0
102
RTVSPost2010PropOp38
 70
     1
102
RTVSPost2010Prop39
140
1.0
102
RTVSPost2010PropOp39
 70
     1
102
RTVSPost2010Prop40
 90
        0
102
RTVSPost2010PropOp40
 70
     1
102
RTVSPost2010Prop41ColorIndex
 90
       18
102
RTVSPost2010Prop41ColorRGB
 90
        0
102
RTVSPost2010PropOp41
 70
     1
102
RTVSPost2010Prop42
 90
       50
102
RTVSPost2010PropOp42
 70
     1
102
RTVSPost2010Prop43
 90
        3
102
RTVSPost2010PropOp43
 70
     1
102
RTVSPost2010Prop44ColorIndex
 90
        5
102
RTVSPost2010Prop44ColorRGB
 90
      255
102
RTVSPost2010PropOp44
 70
     1
102
RTVSPost2010Prop45
280
     0
102
RTVSPost2010PropOp45
 70
     1
102
RTVSPost2010Prop46
 90
       50
102
RTVSPost2010PropOp46
 70
     1
102
RTVSPost2010Prop47
 90
       50
102
RTVSPost2010PropOp47
 70
     1
102
RTVSPost2010Prop48
 90
       50
102
RTVSPost2010PropOp48
 70
     1
102
RTVSPost2010Prop49
280
     0
102
RTVSPost2010PropOp49
 70
     1
102
RTVSPost2010Prop50
 90
       50
102
RTVSPost2010PropOp50
 70
     1
102
RTVSPost2010Prop51ColorIndex
 90
      256
102
RTVSPost2010Prop51ColorRGB
 90
-16777216
102
RTVSPost2010PropOp51
 70
     0
102
RTVSPost2010Prop52
140
1.0
102
RTVSPost2010PropOp52
 70
     0
102
RTVSPost2010Prop53
 90
        2
102
RTVSPost2010PropOp53
 70
     1
102
RTVSPost2010Prop54
  1
strokes_ogs.tif
102
RTVSPost2010PropOp54
 70
     1
102
RTVSPost2010Prop55
280
     0
102
RTVSPost2010PropOp55
 70
     1
102
RTVSPost2010Prop56
140
1.0
102
RTVSPost2010PropOp56
 70
     1
102
RTVSPost2010Prop57
140
1.0
102
RTVSPost2010PropOp57
 70
     1
  0
XRECORD
  5
32E
102
{ACAD_REACTORS
330
32D
102
}
330
32D
100
AcDbXrecord
280
     1
102
RTVSPropertyOp0
 70
     1
102
RTVSPropertyOp1
 70
     1
102
RTVSPropertyOp2
 70
     1
102
RTVSPropertyOp3
 70
     1
102
RTVSPropertyOp4
 70
     1
102
RTVSPropertyOp5
 70
     1
102
RTVSPropertyOp6
 70
     1
102
RTVSPropertyOp7
 70
     1
102
RTVSPropertyOp8
 70
     1
102
RTVSPropertyOp9
 70
     1
102
RTVSPropertyOp10
 70
     1
102
RTVSPropertyOp11
 70
     1
102
RTVSPropertyOp12
 70
     1
102
RTVSPropertyOp13
 70
     1
102
RTVSPropertyOp14
 70
     1
102
RTVSPropertyOp15
 70
     1
102
RTVSPropertyOp16
 70
     1
102
RTVSPropertyOp17
 70
     1
102
RTVSPropertyOp18
 70
     1
102
RTVSPropertyOp19
 70
     1
102
RTVSPropertyOp20
 70
     1
102
RTVSPropertyOp21
 70
     1
102
RTVSPropertyOp22
 70
     1
102
RTVSPropertyOp23
 70
     1
102
RTVSPropertyOp24
 70
     1
102
RTVSPropertyOp25
 70
     1
102
RTVSPropertyOp26
 70
     1
102
RTVSPropertyOp27
 70
     1
102
RTVSPropertyOp28
 70
     1
102
RTVSPropertyOp29
 70
     1
102
RTVSPropertyOp30
 70
     1
102
RTVSPropertyOp31
 70
     1
102
RTVSPropertyOp32
 70
     1
102
RTVSPropertyOp33
 70
     1
102
RTVSPropertyOp34
 70
     1
102
RTVSPropertyOp35
 70
     1
102
RTVSPropertyOp36
 70
     1
102
RTVSPropertyOp37
 70
     1
102
RTVSPropertyOp38
 70
     1
102
RTVSPropertyOp39
 70
     1
102
RTVSPropertyOp40
 70
     1
102
RTVSPropertyOp41
 70
     1
102
RTVSPropertyOp42
 70
     1
102
RTVSPropertyOp43
 70
     1
102
RTVSPropertyOp44
 70
     1
102
RTVSPropertyOp45
 70
     1
102
RTVSPropertyOp46
 70
     1
102
RTVSPropertyOp47
 70
     1
102
RTVSPropertyOp48
 70
     1
102
RTVSPropertyOp49
 70
     1
102
RTVSPropertyOp50
 70
     1
102
RTVSPropertyOp51
 70
     0
102
RTVSPropertyOp52
 70
     0
102
RTVSPropertyOp53
 70
     1
102
RTVSPropertyOp54
 70
     1
102
RTVSPropertyOp55
 70
     1
102
RTVSPropertyOp56
 70
     1
102
RTVSPropertyOp57
 70
     1
102
RTVSPost2010Prop28
280
     0
102
RTVSPost2010PropOp28
 70
     1
102
RTVSPost2010Prop29
280
     1
102
RTVSPost2010PropOp29
 70
     1
102
RTVSPost2010Prop30
280
     1
102
RTVSPost2010PropOp30
 70
     1
102
RTVSPost2010Prop31
280
     0
102
RTVSPost2010PropOp31
 70
     1
102
RTVSPost2010Prop32
280
     0
102
RTVSPost2010PropOp32
 70
     1
102
RTVSPost2010Prop33
280
     0
102
RTVSPost2010PropOp33
 70
     1
102
RTVSPost2010Prop34
280
     0
102
RTVSPost2010PropOp34
 70
     1
102
RTVSPost2010Prop35
280
     0
102
RTVSPost2010PropOp35
 70
     1
102
RTVSPost2010Prop36
280
     0
102
RTVSPost2010PropOp36
 70
     1
102
RTVSPost2010Prop37
 90
       50
102
RTVSPost2010PropOp37
 70
     1
102
RTVSPost2010Prop38
140
0.0
102
RTVSPost2010PropOp38
 70
     1
102
RTVSPost2010Prop39
140
1.0
102
RTVSPost2010PropOp39
 70
     1
102
RTVSPost2010Prop40
 90
        0
102
RTVSPost2010PropOp40
 70
     1
102
RTVSPost2010Prop41ColorIndex
 90
       18
102
RTVSPost2010Prop41ColorRGB
 90
        0
102
RTVSPost2010PropOp41
 70
     1
102
RTVSPost2010Prop42
 90
       50
102
RTVSPost2010PropOp42
 70
     1
102
RTVSPost2010Prop43
 90
        3
102
RTVSPost2010PropOp43
 70
     1
102
RTVSPost2010Prop44ColorIndex
 90
        5
102
RTVSPost2010Prop44ColorRGB
 90
      255
102
RTVSPost2010PropOp44
 70
     1
102
RTVSPost2010Prop45
280
     0
102
RTVSPost2010PropOp45
 70
     1
102
RTVSPost2010Prop46
 90
       50
102
RTVSPost2010PropOp46
 70
     1
102
RTVSPost2010Prop47
 90
       50
102
RTVSPost2010PropOp47
 70
     1
102
RTVSPost2010Prop48
 90
       50
102
RTVSPost2010PropOp48
 70
     1
102
RTVSPost2010Prop49
280
     0
102
RTVSPost2010PropOp49
 70
     1
102
RTVSPost2010Prop50
 90
       50
102
RTVSPost2010PropOp50
 70
     1
102
RTVSPost2010Prop51ColorIndex
 90
      256
102
RTVSPost2010Prop51ColorRGB
 90
-16777216
102
RTVSPost2010PropOp51
 70
     0
102
RTVSPost2010Prop52
140
1.0
102
RTVSPost2010PropOp52
 70
     0
102
RTVSPost2010Prop53
 90
        2
102
RTVSPost2010PropOp53
 70
     1
102
RTVSPost2010Prop54
  1
strokes_ogs.tif
102
RTVSPost2010PropOp54
 70
     1
102
RTVSPost2010Prop55
280
     0
102
RTVSPost2010PropOp55
 70
     1
102
RTVSPost2010Prop56
140
1.0
102
RTVSPost2010PropOp56
 70
     1
102
RTVSPost2010Prop57
140
1.0
102
RTVSPost2010PropOp57
 70
     1
  0
XRECORD
  5
330
102
{ACAD_REACTORS
330
32F
102
}
330
32F
100
AcDbXrecord
280
     1
102
RTVSPropertyOp0
 70
     1
102
RTVSPropertyOp1
 70
     1
102
RTVSPropertyOp2
 70
     1
102
RTVSPropertyOp3
 70
     1
102
RTVSPropertyOp4
 70
     1
102
RTVSPropertyOp5
 70
     1
102
RTVSPropertyOp6
 70
     1
102
RTVSPropertyOp7
 70
     1
102
RTVSPropertyOp8
 70
     1
102
RTVSPropertyOp9
 70
     1
102
RTVSPropertyOp10
 70
     1
102
RTVSPropertyOp11
 70
     1
102
RTVSPropertyOp12
 70
     1
102
RTVSPropertyOp13
 70
     1
102
RTVSPropertyOp14
 70
     1
102
RTVSPropertyOp15
 70
     1
102
RTVSPropertyOp16
 70
     1
102
RTVSPropertyOp17
 70
     1
102
RTVSPropertyOp18
 70
     1
102
RTVSPropertyOp19
 70
     1
102
RTVSPropertyOp20
 70
     1
102
RTVSPropertyOp21
 70
     1
102
RTVSPropertyOp22
 70
     1
102
RTVSPropertyOp23
 70
     1
102
RTVSPropertyOp24
 70
     1
102
RTVSPropertyOp25
 70
     1
102
RTVSPropertyOp26
 70
     1
102
RTVSPropertyOp27
 70
     1
102
RTVSPropertyOp28
 70
     1
102
RTVSPropertyOp29
 70
     1
102
RTVSPropertyOp30
 70
     1
102
RTVSPropertyOp31
 70
     1
102
RTVSPropertyOp32
 70
     1
102
RTVSPropertyOp33
 70
     1
102
RTVSPropertyOp34
 70
     1
102
RTVSPropertyOp35
 70
     1
102
RTVSPropertyOp36
 70
     1
102
RTVSPropertyOp37
 70
     1
102
RTVSPropertyOp38
 70
     1
102
RTVSPropertyOp39
 70
     1
102
RTVSPropertyOp40
 70
     1
102
RTVSPropertyOp41
 70
     1
102
RTVSPropertyOp42
 70
     1
102
RTVSPropertyOp43
 70
     1
102
RTVSPropertyOp44
 70
     1
102
RTVSPropertyOp45
 70
     1
102
RTVSPropertyOp46
 70
     1
102
RTVSPropertyOp47
 70
     1
102
RTVSPropertyOp48
 70
     1
102
RTVSPropertyOp49
 70
     1
102
RTVSPropertyOp50
 70
     1
102
RTVSPropertyOp51
 70
     0
102
RTVSPropertyOp52
 70
     0
102
RTVSPropertyOp53
 70
     1
102
RTVSPropertyOp54
 70
     1
102
RTVSPropertyOp55
 70
     1
102
RTVSPropertyOp56
 70
     1
102
RTVSPropertyOp57
 70
     1
102
RTVSPost2010Prop28
280
     0
102
RTVSPost2010PropOp28
 70
     1
102
RTVSPost2010Prop29
280
     1
102
RTVSPost2010PropOp29
 70
     1
102
RTVSPost2010Prop30
280
     1
102
RTVSPost2010PropOp30
 70
     1
102
RTVSPost2010Prop31
280
     0
102
RTVSPost2010PropOp31
 70
     1
102
RTVSPost2010Prop32
280
     0
102
RTVSPost2010PropOp32
 70
     1
102
RTVSPost2010Prop33
280
     0
102
RTVSPost2010PropOp33
 70
     1
102
RTVSPost2010Prop34
280
     0
102
RTVSPost2010PropOp34
 70
     1
102
RTVSPost2010Prop35
280
     0
102
RTVSPost2010PropOp35
 70
     1
102
RTVSPost2010Prop36
280
     0
102
RTVSPost2010PropOp36
 70
     1
102
RTVSPost2010Prop37
 90
       50
102
RTVSPost2010PropOp37
 70
     1
102
RTVSPost2010Prop38
140
0.0
102
RTVSPost2010PropOp38
 70
     1
102
RTVSPost2010Prop39
140
1.0
102
RTVSPost2010PropOp39
 70
     1
102
RTVSPost2010Prop40
 90
        0
102
RTVSPost2010PropOp40
 70
     1
102
RTVSPost2010Prop41ColorIndex
 90
       18
102
RTVSPost2010Prop41ColorRGB
 90
        0
102
RTVSPost2010PropOp41
 70
     1
102
RTVSPost2010Prop42
 90
       50
102
RTVSPost2010PropOp42
 70
     1
102
RTVSPost2010Prop43
 90
        3
102
RTVSPost2010PropOp43
 70
     1
102
RTVSPost2010Prop44ColorIndex
 90
        5
102
RTVSPost2010Prop44ColorRGB
 90
      255
102
RTVSPost2010PropOp44
 70
     1
102
RTVSPost2010Prop45
280
     0
102
RTVSPost2010PropOp45
 70
     1
102
RTVSPost2010Prop46
 90
       50
102
RTVSPost2010PropOp46
 70
     1
102
RTVSPost2010Prop47
 90
       50
102
RTVSPost2010PropOp47
 70
     1
102
RTVSPost2010Prop48
 90
       50
102
RTVSPost2010PropOp48
 70
     1
102
RTVSPost2010Prop49
280
     0
102
RTVSPost2010PropOp49
 70
     1
102
RTVSPost2010Prop50
 90
       50
102
RTVSPost2010PropOp50
 70
     1
102
RTVSPost2010Prop51ColorIndex
 90
      256
102
RTVSPost2010Prop51ColorRGB
 90
-16777216
102
RTVSPost2010PropOp51
 70
     0
102
RTVSPost2010Prop52
140
1.0
102
RTVSPost2010PropOp52
 70
     0
102
RTVSPost2010Prop53
 90
        2
102
RTVSPost2010PropOp53
 70
     1
102
RTVSPost2010Prop54
  1
strokes_ogs.tif
102
RTVSPost2010PropOp54
 70
     1
102
RTVSPost2010Prop55
280
     0
102
RTVSPost2010PropOp55
 70
     1
102
RTVSPost2010Prop56
140
1.0
102
RTVSPost2010PropOp56
 70
     1
102
RTVSPost2010Prop57
140
1.0
102
RTVSPost2010PropOp57
 70
     1
  0
XRECORD
  5
320
102
{ACAD_REACTORS
330
31F
102
}
330
31F
100
AcDbXrecord
280
     1
102
RTVSPropertyOp0
 70
     1
102
RTVSPropertyOp1
 70
     1
102
RTVSPropertyOp2
 70
     1
102
RTVSPropertyOp3
 70
     1
102
RTVSPropertyOp4
 70
     1
102
RTVSPropertyOp5
 70
     1
102
RTVSPropertyOp6
 70
     1
102
RTVSPropertyOp7
 70
     1
102
RTVSPropertyOp8
 70
     1
102
RTVSPropertyOp9
 70
     1
102
RTVSPropertyOp10
 70
     1
102
RTVSPropertyOp11
 70
     1
102
RTVSPropertyOp12
 70
     1
102
RTVSPropertyOp13
 70
     1
102
RTVSPropertyOp14
 70
     1
102
RTVSPropertyOp15
 70
     1
102
RTVSPropertyOp16
 70
     1
102
RTVSPropertyOp17
 70
     1
102
RTVSPropertyOp18
 70
     1
102
RTVSPropertyOp19
 70
     1
102
RTVSPropertyOp20
 70
     1
102
RTVSPropertyOp21
 70
     1
102
RTVSPropertyOp22
 70
     1
102
RTVSPropertyOp23
 70
     1
102
RTVSPropertyOp24
 70
     1
102
RTVSPropertyOp25
 70
     1
102
RTVSPropertyOp26
 70
     1
102
RTVSPropertyOp27
 70
     1
102
RTVSPropertyOp28
 70
     1
102
RTVSPropertyOp29
 70
     1
102
RTVSPropertyOp30
 70
     1
102
RTVSPropertyOp31
 70
     1
102
RTVSPropertyOp32
 70
     1
102
RTVSPropertyOp33
 70
     1
102
RTVSPropertyOp34
 70
     1
102
RTVSPropertyOp35
 70
     1
102
RTVSPropertyOp36
 70
     1
102
RTVSPropertyOp37
 70
     1
102
RTVSPropertyOp38
 70
     1
102
RTVSPropertyOp39
 70
     1
102
RTVSPropertyOp40
 70
     1
102
RTVSPropertyOp41
 70
     1
102
RTVSPropertyOp42
 70
     1
102
RTVSPropertyOp43
 70
     1
102
RTVSPropertyOp44
 70
     1
102
RTVSPropertyOp45
 70
     1
102
RTVSPropertyOp46
 70
     1
102
RTVSPropertyOp47
 70
     1
102
RTVSPropertyOp48
 70
     1
102
RTVSPropertyOp49
 70
     1
102
RTVSPropertyOp50
 70
     1
102
RTVSPropertyOp51
 70
     0
102
RTVSPropertyOp52
 70
     0
102
RTVSPropertyOp53
 70
     1
102
RTVSPropertyOp54
 70
     1
102
RTVSPropertyOp55
 70
     1
102
RTVSPropertyOp56
 70
     1
102
RTVSPropertyOp57
 70
     1
102
RTVSPost2010Prop28
280
     0
102
RTVSPost2010PropOp28
 70
     1
102
RTVSPost2010Prop29
280
     1
102
RTVSPost2010PropOp29
 70
     1
102
RTVSPost2010Prop30
280
     1
102
RTVSPost2010PropOp30
 70
     1
102
RTVSPost2010Prop31
280
     0
102
RTVSPost2010PropOp31
 70
     1
102
RTVSPost2010Prop32
280
     0
102
RTVSPost2010PropOp32
 70
     1
102
RTVSPost2010Prop33
280
     0
102
RTVSPost2010PropOp33
 70
     1
102
RTVSPost2010Prop34
280
     0
102
RTVSPost2010PropOp34
 70
     1
102
RTVSPost2010Prop35
280
     0
102
RTVSPost2010PropOp35
 70
     1
102
RTVSPost2010Prop36
280
     0
102
RTVSPost2010PropOp36
 70
     1
102
RTVSPost2010Prop37
 90
       50
102
RTVSPost2010PropOp37
 70
     1
102
RTVSPost2010Prop38
140
0.0
102
RTVSPost2010PropOp38
 70
     1
102
RTVSPost2010Prop39
140
1.0
102
RTVSPost2010PropOp39
 70
     1
102
RTVSPost2010Prop40
 90
        0
102
RTVSPost2010PropOp40
 70
     1
102
RTVSPost2010Prop41ColorIndex
 90
       18
102
RTVSPost2010Prop41ColorRGB
 90
        0
102
RTVSPost2010PropOp41
 70
     1
102
RTVSPost2010Prop42
 90
       50
102
RTVSPost2010PropOp42
 70
     1
102
RTVSPost2010Prop43
 90
        3
102
RTVSPost2010PropOp43
 70
     1
102
RTVSPost2010Prop44ColorIndex
 90
        5
102
RTVSPost2010Prop44ColorRGB
 90
      255
102
RTVSPost2010PropOp44
 70
     1
102
RTVSPost2010Prop45
280
     0
102
RTVSPost2010PropOp45
 70
     1
102
RTVSPost2010Prop46
 90
       50
102
RTVSPost2010PropOp46
 70
     1
102
RTVSPost2010Prop47
 90
       50
102
RTVSPost2010PropOp47
 70
     1
102
RTVSPost2010Prop48
 90
       50
102
RTVSPost2010PropOp48
 70
     1
102
RTVSPost2010Prop49
280
     0
102
RTVSPost2010PropOp49
 70
     1
102
RTVSPost2010Prop50
 90
       50
102
RTVSPost2010PropOp50
 70
     1
102
RTVSPost2010Prop51ColorIndex
 90
      256
102
RTVSPost2010Prop51ColorRGB
 90
-16777216
102
RTVSPost2010PropOp51
 70
     0
102
RTVSPost2010Prop52
140
1.0
102
RTVSPost2010PropOp52
 70
     0
102
RTVSPost2010Prop53
 90
        2
102
RTVSPost2010PropOp53
 70
     1
102
RTVSPost2010Prop54
  1
strokes_ogs.tif
102
RTVSPost2010PropOp54
 70
     1
102
RTVSPost2010Prop55
280
     0
102
RTVSPost2010PropOp55
 70
     1
102
RTVSPost2010Prop56
140
1.0
102
RTVSPost2010PropOp56
 70
     1
102
RTVSPost2010Prop57
140
1.0
102
RTVSPost2010PropOp57
 70
     1
  0
XRECORD
  5
312
102
{ACAD_REACTORS
330
311
102
}
330
311
100
AcDbXrecord
280
     1
102
RTVSPropertyOp0
 70
     1
102
RTVSPropertyOp1
 70
     1
102
RTVSPropertyOp2
 70
     1
102
RTVSPropertyOp3
 70
     1
102
RTVSPropertyOp4
 70
     1
102
RTVSPropertyOp5
 70
     1
102
RTVSPropertyOp6
 70
     1
102
RTVSPropertyOp7
 70
     1
102
RTVSPropertyOp8
 70
     1
102
RTVSPropertyOp9
 70
     1
102
RTVSPropertyOp10
 70
     1
102
RTVSPropertyOp11
 70
     1
102
RTVSPropertyOp12
 70
     1
102
RTVSPropertyOp13
 70
     1
102
RTVSPropertyOp14
 70
     1
102
RTVSPropertyOp15
 70
     1
102
RTVSPropertyOp16
 70
     1
102
RTVSPropertyOp17
 70
     1
102
RTVSPropertyOp18
 70
     1
102
RTVSPropertyOp19
 70
     1
102
RTVSPropertyOp20
 70
     1
102
RTVSPropertyOp21
 70
     1
102
RTVSPropertyOp22
 70
     1
102
RTVSPropertyOp23
 70
     1
102
RTVSPropertyOp24
 70
     1
102
RTVSPropertyOp25
 70
     1
102
RTVSPropertyOp26
 70
     1
102
RTVSPropertyOp27
 70
     1
102
RTVSPropertyOp28
 70
     1
102
RTVSPropertyOp29
 70
     1
102
RTVSPropertyOp30
 70
     1
102
RTVSPropertyOp31
 70
     1
102
RTVSPropertyOp32
 70
     1
102
RTVSPropertyOp33
 70
     1
102
RTVSPropertyOp34
 70
     1
102
RTVSPropertyOp35
 70
     1
102
RTVSPropertyOp36
 70
     1
102
RTVSPropertyOp37
 70
     1
102
RTVSPropertyOp38
 70
     1
102
RTVSPropertyOp39
 70
     1
102
RTVSPropertyOp40
 70
     1
102
RTVSPropertyOp41
 70
     1
102
RTVSPropertyOp42
 70
     1
102
RTVSPropertyOp43
 70
     1
102
RTVSPropertyOp44
 70
     1
102
RTVSPropertyOp45
 70
     1
102
RTVSPropertyOp46
 70
     1
102
RTVSPropertyOp47
 70
     1
102
RTVSPropertyOp48
 70
     1
102
RTVSPropertyOp49
 70
     1
102
RTVSPropertyOp50
 70
     1
102
RTVSPropertyOp51
 70
     0
102
RTVSPropertyOp52
 70
     0
102
RTVSPropertyOp53
 70
     1
102
RTVSPropertyOp54
 70
     1
102
RTVSPropertyOp55
 70
     1
102
RTVSPropertyOp56
 70
     1
102
RTVSPropertyOp57
 70
     1
102
RTVSPost2010Prop28
280
     0
102
RTVSPost2010PropOp28
 70
     1
102
RTVSPost2010Prop29
280
     1
102
RTVSPost2010PropOp29
 70
     1
102
RTVSPost2010Prop30
280
     1
102
RTVSPost2010PropOp30
 70
     1
102
RTVSPost2010Prop31
280
     0
102
RTVSPost2010PropOp31
 70
     1
102
RTVSPost2010Prop32
280
     0
102
RTVSPost2010PropOp32
 70
     1
102
RTVSPost2010Prop33
280
     0
102
RTVSPost2010PropOp33
 70
     1
102
RTVSPost2010Prop34
280
     0
102
RTVSPost2010PropOp34
 70
     1
102
RTVSPost2010Prop35
280
     0
102
RTVSPost2010PropOp35
 70
     1
102
RTVSPost2010Prop36
280
     0
102
RTVSPost2010PropOp36
 70
     1
102
RTVSPost2010Prop37
 90
       50
102
RTVSPost2010PropOp37
 70
     1
102
RTVSPost2010Prop38
140
0.0
102
RTVSPost2010PropOp38
 70
     1
102
RTVSPost2010Prop39
140
1.0
102
RTVSPost2010PropOp39
 70
     1
102
RTVSPost2010Prop40
 90
        0
102
RTVSPost2010PropOp40
 70
     1
102
RTVSPost2010Prop41ColorIndex
 90
       18
102
RTVSPost2010Prop41ColorRGB
 90
        0
102
RTVSPost2010PropOp41
 70
     1
102
RTVSPost2010Prop42
 90
       50
102
RTVSPost2010PropOp42
 70
     1
102
RTVSPost2010Prop43
 90
        3
102
RTVSPost2010PropOp43
 70
     1
102
RTVSPost2010Prop44ColorIndex
 90
        5
102
RTVSPost2010Prop44ColorRGB
 90
      255
102
RTVSPost2010PropOp44
 70
     1
102
RTVSPost2010Prop45
280
     0
102
RTVSPost2010PropOp45
 70
     1
102
RTVSPost2010Prop46
 90
       50
102
RTVSPost2010PropOp46
 70
     1
102
RTVSPost2010Prop47
 90
       50
102
RTVSPost2010PropOp47
 70
     1
102
RTVSPost2010Prop48
 90
       50
102
RTVSPost2010PropOp48
 70
     1
102
RTVSPost2010Prop49
280
     0
102
RTVSPost2010PropOp49
 70
     1
102
RTVSPost2010Prop50
 90
       50
102
RTVSPost2010PropOp50
 70
     1
102
RTVSPost2010Prop51ColorIndex
 90
      256
102
RTVSPost2010Prop51ColorRGB
 90
-16777216
102
RTVSPost2010PropOp51
 70
     0
102
RTVSPost2010Prop52
140
1.0
102
RTVSPost2010PropOp52
 70
     0
102
RTVSPost2010Prop53
 90
        2
102
RTVSPost2010PropOp53
 70
     1
102
RTVSPost2010Prop54
  1
strokes_ogs.tif
102
RTVSPost2010PropOp54
 70
     1
102
RTVSPost2010Prop55
280
     0
102
RTVSPost2010PropOp55
 70
     1
102
RTVSPost2010Prop56
140
1.0
102
RTVSPost2010PropOp56
 70
     1
102
RTVSPost2010Prop57
140
1.0
102
RTVSPost2010PropOp57
 70
     1
  0
XRECORD
  5
332
102
{ACAD_REACTORS
330
331
102
}
330
331
100
AcDbXrecord
280
     1
102
RTVSPropertyOp0
 70
     1
102
RTVSPropertyOp1
 70
     1
102
RTVSPropertyOp2
 70
     1
102
RTVSPropertyOp3
 70
     1
102
RTVSPropertyOp4
 70
     1
102
RTVSPropertyOp5
 70
     1
102
RTVSPropertyOp6
 70
     1
102
RTVSPropertyOp7
 70
     1
102
RTVSPropertyOp8
 70
     1
102
RTVSPropertyOp9
 70
     1
102
RTVSPropertyOp10
 70
     1
102
RTVSPropertyOp11
 70
     1
102
RTVSPropertyOp12
 70
     1
102
RTVSPropertyOp13
 70
     1
102
RTVSPropertyOp14
 70
     1
102
RTVSPropertyOp15
 70
     1
102
RTVSPropertyOp16
 70
     1
102
RTVSPropertyOp17
 70
     1
102
RTVSPropertyOp18
 70
     1
102
RTVSPropertyOp19
 70
     1
102
RTVSPropertyOp20
 70
     1
102
RTVSPropertyOp21
 70
     1
102
RTVSPropertyOp22
 70
     1
102
RTVSPropertyOp23
 70
     1
102
RTVSPropertyOp24
 70
     1
102
RTVSPropertyOp25
 70
     1
102
RTVSPropertyOp26
 70
     1
102
RTVSPropertyOp27
 70
     1
102
RTVSPropertyOp28
 70
     1
102
RTVSPropertyOp29
 70
     1
102
RTVSPropertyOp30
 70
     1
102
RTVSPropertyOp31
 70
     1
102
RTVSPropertyOp32
 70
     1
102
RTVSPropertyOp33
 70
     1
102
RTVSPropertyOp34
 70
     1
102
RTVSPropertyOp35
 70
     1
102
RTVSPropertyOp36
 70
     1
102
RTVSPropertyOp37
 70
     1
102
RTVSPropertyOp38
 70
     1
102
RTVSPropertyOp39
 70
     1
102
RTVSPropertyOp40
 70
     1
102
RTVSPropertyOp41
 70
     1
102
RTVSPropertyOp42
 70
     1
102
RTVSPropertyOp43
 70
     1
102
RTVSPropertyOp44
 70
     1
102
RTVSPropertyOp45
 70
     1
102
RTVSPropertyOp46
 70
     1
102
RTVSPropertyOp47
 70
     1
102
RTVSPropertyOp48
 70
     1
102
RTVSPropertyOp49
 70
     1
102
RTVSPropertyOp50
 70
     1
102
RTVSPropertyOp51
 70
     0
102
RTVSPropertyOp52
 70
     0
102
RTVSPropertyOp53
 70
     1
102
RTVSPropertyOp54
 70
     1
102
RTVSPropertyOp55
 70
     1
102
RTVSPropertyOp56
 70
     1
102
RTVSPropertyOp57
 70
     1
102
RTVSPost2010Prop28
280
     0
102
RTVSPost2010PropOp28
 70
     1
102
RTVSPost2010Prop29
280
     1
102
RTVSPost2010PropOp29
 70
     1
102
RTVSPost2010Prop30
280
     1
102
RTVSPost2010PropOp30
 70
     1
102
RTVSPost2010Prop31
280
     0
102
RTVSPost2010PropOp31
 70
     1
102
RTVSPost2010Prop32
280
     0
102
RTVSPost2010PropOp32
 70
     1
102
RTVSPost2010Prop33
280
     0
102
RTVSPost2010PropOp33
 70
     1
102
RTVSPost2010Prop34
280
     0
102
RTVSPost2010PropOp34
 70
     1
102
RTVSPost2010Prop35
280
     0
102
RTVSPost2010PropOp35
 70
     1
102
RTVSPost2010Prop36
280
     0
102
RTVSPost2010PropOp36
 70
     1
102
RTVSPost2010Prop37
 90
       50
102
RTVSPost2010PropOp37
 70
     1
102
RTVSPost2010Prop38
140
0.0
102
RTVSPost2010PropOp38
 70
     1
102
RTVSPost2010Prop39
140
1.0
102
RTVSPost2010PropOp39
 70
     1
102
RTVSPost2010Prop40
 90
        0
102
RTVSPost2010PropOp40
 70
     1
102
RTVSPost2010Prop41ColorIndex
 90
       18
102
RTVSPost2010Prop41ColorRGB
 90
        0
102
RTVSPost2010PropOp41
 70
     1
102
RTVSPost2010Prop42
 90
       50
102
RTVSPost2010PropOp42
 70
     1
102
RTVSPost2010Prop43
 90
        3
102
RTVSPost2010PropOp43
 70
     1
102
RTVSPost2010Prop44ColorIndex
 90
        5
102
RTVSPost2010Prop44ColorRGB
 90
      255
102
RTVSPost2010PropOp44
 70
     1
102
RTVSPost2010Prop45
280
     0
102
RTVSPost2010PropOp45
 70
     1
102
RTVSPost2010Prop46
 90
       50
102
RTVSPost2010PropOp46
 70
     1
102
RTVSPost2010Prop47
 90
       50
102
RTVSPost2010PropOp47
 70
     1
102
RTVSPost2010Prop48
 90
       50
102
RTVSPost2010PropOp48
 70
     1
102
RTVSPost2010Prop49
280
     0
102
RTVSPost2010PropOp49
 70
     1
102
RTVSPost2010Prop50
 90
       50
102
RTVSPost2010PropOp50
 70
     1
102
RTVSPost2010Prop51ColorIndex
 90
      256
102
RTVSPost2010Prop51ColorRGB
 90
-16777216
102
RTVSPost2010PropOp51
 70
     0
102
RTVSPost2010Prop52
140
1.0
102
RTVSPost2010PropOp52
 70
     0
102
RTVSPost2010Prop53
 90
        2
102
RTVSPost2010PropOp53
 70
     1
102
RTVSPost2010Prop54
  1
strokes_ogs.tif
102
RTVSPost2010PropOp54
 70
     1
102
RTVSPost2010Prop55
280
     0
102
RTVSPost2010PropOp55
 70
     1
102
RTVSPost2010Prop56
140
1.0
102
RTVSPost2010PropOp56
 70
     1
102
RTVSPost2010Prop57
140
1.0
102
RTVSPost2010PropOp57
 70
     1
  0
ENDSEC
  0
EOF
